rock
 
|tablatures   |lyrics   |discussion forums   |more tabs @ XGuitar.com

Manowar tabs

Thor (The Powerhead) bass tab

Thor (BASS)



G---||-----7--7-9-----7--7-9-----7--7-9--7--9--11--12--------7--7-9-----7--7-9-----7--7-9--7--9-----
D---||-----7--7-9-----7--7-9-----7--7-9--7--9--11--12--------7--7-9-----7--7-9-----7--7-9--7--9-----
A---||-----5--5/7-----5--5/7-----5--5/7--5--7--9---10--------5--5/7-----5--5/7-----5--5/7--5--7-----
E---||----------------------------------------------------------------------------------------------

Intro

G---11--12-----------5-----------7-----------7--7-9-----7--7-9-----7--7-9--7--9--11--12--------7----
D---11--12-----------5-----------7-----------7--7-9-----7--7-9-----7--7-9--7--9--11--12--------7----
A---9---10-----------3-----------5-----------5--5/7-----5--5/7-----5--5/7--5--7--9---10--------5----
E---------------------------------------------------------------------------------------------------

G---7-9-----7--7-9-----7--7-9--7--9--11--12-----------5-----------7-----------7--7-9-----7--7-9-----
D---7-9-----7--7-9-----7--7-9--7--9--11--12-----------5-----------7-----------7--7-9-----7--7-9-----
A---5/7-----5--5/7-----5--5/7--5--7--9---10-----------3-----------5-----------5--5/7-----5--5/7-----
E---------------------------------------------------------------------------------------------------

G------7--7-9--7--9--11--12-----7--7-9-----7--7-9-----7--7-9--7--9--11--12--|-----------------------
D------7--7-9--7--9--11--12-----7--7-9-----7--7-9-----7--7-9--7--9--11--12--|-----9--12--11--9------
A------5--5/7--5--7--9---10-----5--5/7-----5--5/7-----5--5/7--5--7--9---10--|-----7--10--9---7------
E---------------------------------------------------------------------------|-----------------------

G------------------------------|-----9-----------------------------------------9--------7-----------
D---11--7-----7--10--9--7--11--|-----9-----------------------------------------9--------7-----------
A---9---5-----5--8---7--5--9---|-----7-----------------------------------------7--------5-----------
E------------------------------|--------------------------------------------------------------------
Black clouds on the horizon

Palm mute these chords
G---5-----5--5--5--5--7--7--7--7-----9--------------------------9--------7--------5-----------------
D---5-----5--5--5--5--7--7--7--7-----9--------------------------9--------7--------5-----------------
A---3-----3--3--3--3--5--5--5--5-----7--------------------------7--------5--------3-----------------
E---------------------------------------------------------------------------------------------------

Great thunder and burning rainHis chariot pounding

Palm mute these chords

G------5--5--5--5--7--7--7--7-----9--------------------------9--------7--------5--------------------
D------5--5--5--5--7--7--7--7-----9--------------------------9--------7--------5--------------------
A------3--3--3--3--5--5--5--5-----7--------------------------7--------5--------3--------------------
E---------------------------------------------------------------------------------------------------

I heard the heavens scream his name
Palm mute these chords

G------5--5--5--5--7--7--7--7-----9--------------------------9--------7--------5--------------------
D------5--5--5--5--7--7--7--7-----9--------------------------9--------7--------5--------------------
A------3--3--3--3--5--5--5--5-----7--------------------------7--------5--------3--------------------
E---------------------------------------------------------------------------------------------------

I watched as he shouted
Palm mute these chords

G------5--5--5--5--7--7--7--7-----9--------------------------9--------7--------5--------------------
D------5--5--5--5--7--7--7--7-----9--------------------------9--------7--------5--------------------
A------3--3--3--3--5--5--5--5-----7--------------------------7--------5--------3--------------------
E---------------------------------------------------------------------------------------------------

To the giants who died that daHe held up his hammer HIGH
Palm mute these chords

G------5--5--5--5--7--7--7--7-----9--------------------------9--------7--------5--------------------
D------5--5--5--5--7--7--7--7-----9--------------------------9--------7--------5--------------------
A------3--3--3--3--5--5--5--5-----7--------------------------7--------5--------3--------------------
E---------------------------------------------------------------------------------------------------

And called to Odin for a sign
Palm mute these chords

G------5--5--5--5--7--7--7--7--|-----9--------------------------------------------------------------
D------5--5--5--5--7--7--7--7--|-----9--------------------------------------10----------------------
A------3--3--3--3--5--5--5--5--|-----7--------------------------------------10----------------------
E------------------------------|--------------------------------------------8-----------------------

Thor the Mighty Thor the Brave Crush the infidels

G---------------------9-----------------------------------------------------------------------------
D---------------------9-----------------------------------------10----------------------------------
A---------------------7-----------------------------------------10----------------------------------
E---------------------------------------------------------------8-----------------------------------

in your way By your hammer let none be saved Live to die on that final day

G---------|-----------------------------------------------5--5--5--5--5--5--5--5--7-----------------
D---------|--5--5--5--5--5--5--5--7--7--7--7--7--7--7--7--3--3--3--3--3--3--3--3--5-----------------
A---------|--3--3--3--3--3--3--3--5--5--5--5--5--5--5--5--------------------------------------------
E---------|-----------------------------------------------------------------------------------------

Gods Monsters and Men Will
Let this chord ring

G---7--7--7--7--7--7--4-----4-----4-----4-----4--4-----4-----4-----------------------|--|-----------
D---5--5--5--5--5--5--4-----4-----4-----4-----4--4-----4-----4-----------------------|--|-----------
A---------------------2-----2-----2-----2-----2--2-----2-----2-----------------------|--|-----------
E------------------------------------------------------------------------------------|--|-----------

die together in the end

G---9-----------------------------------9--------7--------5-----------------------------------------
D---9-----------------------------------9--------7--------5-----------------------------------------
A---7-----------------------------------7--------5--------3-----------------------------------------
E---------------------------------------------------------------------------------------------------

God of Thunder God of Rain
Palm mute these chords

G---5--5--5--5--7--7--7--7-----9-----------------------------------9--------7--------5--------------
D---5--5--5--5--7--7--7--7-----9-----------------------------------9--------7--------5--------------
A---3--3--3--3--5--5--5--5-----7-----------------------------------7--------5--------3--------------
E---------------------------------------------------------------------------------------------------

Earth's shaker who feels noThe Powerhead of the Universe
Palm mute these chords

G------5--5--5--5--7--7--7--7-----9-----------------------------------9--------7--------5-----------
D------5--5--5--5--7--7--7--7-----9-----------------------------------9--------7--------5-----------
A------3--3--3--3--5--5--5--5-----7-----------------------------------7--------5--------3-----------
E---------------------------------------------------------------------------------------------------

Now stem your neverending curse
Palm mute these chords

G---5--5--5--5--7--7--7--7-----9-----------------------------------9--------7--------5--------------
D---5--5--5--5--7--7--7--7-----9-----------------------------------9--------7--------5--------------
A---3--3--3--3--5--5--5--5-----7-----------------------------------7--------5--------3--------------
E---------------------------------------------------------------------------------------------------

I watched as he shouted
Palm mute these chords

G------5--5--5--5--7--7--7--7-----9-----------------------------------9--------7--------5-----------
D------5--5--5--5--7--7--7--7-----9-----------------------------------9--------7--------5-----------
A------3--3--3--3--5--5--5--5-----7-----------------------------------7--------5--------3-----------
E---------------------------------------------------------------------------------------------------

To the giants who died that He held up his hammer HIGH
Palm mute these chords

G------5--5--5--5--7--7--7--7-----9-----------------------------------9--------7--------5-----------
D------5--5--5--5--7--7--7--7-----9-----------------------------------9--------7--------5-----------
A------3--3--3--3--5--5--5--5-----7-----------------------------------7--------5--------3-----------
E---------------------------------------------------------------------------------------------------

And called to Odin for a sign
Palm mute these chords

G------5--5--5--5--7--7--7--7--|--9-----------------------------------------------------------------
D------5--5--5--5--7--7--7--7--|--9--------------------------------------10-------------------------
A------3--3--3--3--5--5--5--5--|--7--------------------------------------10-------------------------
E------------------------------|-----------------------------------------8--------------------------

Thor the Mighty Thor the Brave Crush the infidels

G---------------------9-----------------------------------------------------------------------------
D---------------------9--------------------------------------------10-------------------------------
A---------------------7--------------------------------------------10-------------------------------
E------------------------------------------------------------------8--------------------------------

in your way By your hammer let none be saved Live to die on that final day

G------------|-----------------------------------------------5--5--5--5--5--5--5--5--7--------------
D------------|--5--5--5--5--5--5--5--7--7--7--7--7--7--7--7--3--3--3--3--3--3--3--3--5--------------
A------------|--3--3--3--3--3--3--3--5--5--5--5--5--5--5--5-----------------------------------------
E------------|--------------------------------------------------------------------------------------

Gods Monsters and Men Will
Let this chord ring

G---7--7--7--7--7--7--4-----4-----4-----4-----4--4-----4-----4--------------------------|-----------
D---5--5--5--5--5--5--4-----4-----4-----4-----4--4-----4-----4--------------------------|-----------
A---------------------2-----2-----2-----2-----2--2-----2-----2--------------------------|-----------
E---------------------------------------------------------------------------------------|-----------

die together in the end
This part is played FAST!

G---------------------------------------------|-----------------------------------------------------
D---------------------------------------------|-----------------------------------------------------
A---------------------------------------------|--7--7--7--7--7--7--7--7--3--3--3--3--5--5--5--5-----
E---------------------------------------------|-----------------------------------------------------

AAAAAAHHHHHHHH OHHHHHH!!!!!!!! Guitar Solo

G---------------------------------------------------------------------------------------------------
D---------------------------------------------------------------------------------------------------
A---7--7--7--7--7--7--7--7--3--3--3--3--5--5--5--5--7--7--7--7--7--7--7--7--3--3--3--3--5--5--5-----
E---------------------------------------------------------------------------------------------------

G---------------------------------------------------------------------------------------------------
D---------------------------------------------------------------------------------------------------
A---5--7--7--7--7--7--7--7--7--3--3--3--3--5--5--5--5--7--7--7--7--7--7--7--7--3--3--3--3--5--5-----
E---------------------------------------------------------------------------------------------------

G---------------------------------------------------------------------------------------------------
D---------------------------------------------------------------------------------------------------
A---5--5--7--7--7--7--7--7--7--7--3--3--3--3--5--5--5--5--7--7--7--7--7--7--7--7--3--3--3--3--5-----
E---------------------------------------------------------------------------------------------------

G------------------------------------------------------------------------------------5--5--5--5-----
D------------------------------------------------------------------------------------5--5--5--5-----
A---5--5--5--7--7--7--7--7--7--7--7--3--3--3--3--5--5--5--5--7--7--7--7--7--7--7--7--3--3--3--3-----
E---------------------------------------------------------------------------------------------------

G---7--7--7--7--------------------------5--5--5--5--7--7--7--7--|-----------------------------------
D---7--7--7--7--------------------------5--5--5--5--7--7--7--7--|-----------------------------------
A---5--5--5--5--7--7--7--7--7--7--7--7--3--3--3--3--5--5--5--5--|-----------------------------------
E---------------------------------------------------------------|-----------------------------------

G---9-----------------------------------9--------7--------5-----------------------------------------
D---9-----------------------------------9--------7--------5-----------------------------------------
A---7-----------------------------------7--------5--------3-----------------------------------------
E---------------------------------------------------------------------------------------------------

Swing your hammer to crack the sky
Palm mute these chords

G---5--5--5--5--7--7--7--7--9-----------------------------------9--------7--------5-----------------
D---5--5--5--5--7--7--7--7--9-----------------------------------9--------7--------5-----------------
A---3--3--3--3--5--5--5--5--7-----------------------------------7--------5--------3-----------------
E---------------------------------------------------------------------------------------------------

Lift your cape so that yBack to Odin and the Gods on HIGH!
Palm mute these chords

G------5--5--5--5--7--7--7--7--9-----------------------------------9--------7--------5--------------
D------5--5--5--5--7--7--7--7--9-----------------------------------9--------7--------5--------------
A------3--3--3--3--5--5--5--5--7-----------------------------------7--------5--------3--------------
E---------------------------------------------------------------------------------------------------

And leave the mortal world
Palm mute these chords

G---5--5--5--5--7--7--7--7--|--9--------------------------------------------------------------------
D---5--5--5--5--7--7--7--7--|--9--------------------------------------10----------------------------
A---3--3--3--3--5--5--5--5--|--7--------------------------------------10----------------------------
E---------------------------|-----------------------------------------8-----------------------------

Thor the Mighty Thor the Brave Crush the infidels

G---------------------9-----------------------------------------------------------------------------
D---------------------9--------------------------------------------10-------------------------------
A---------------------7--------------------------------------------10-------------------------------
E------------------------------------------------------------------8--------------------------------

in your way By your hammer let none be saved Live to die on that final day

G------------|-----------------------------------------------5--5--5--5--5--5--5--------------------
D------------|--5--5--5--5--5--5--5--7--7--7--7--7--7--7--7--3--3--3--3--3--3--3--------------------
A------------|--3--3--3--3--3--3--3--5--5--5--5--5--5--5--5-----------------------------------------
E------------|--------------------------------------------------------------------------------------


Gods Monsters and Men
Let this chord ring

G---5--7--7--7--7--7--7--7--4-----4-----4-----4-----4--4-----4-----4--------------------------|-----
D---3--5--5--5--5--5--5--5--4-----4-----4-----4-----4--4-----4-----4--------------------------|-----
A---------------------------2-----2-----2-----2-----2--2-----2-----2--------------------------|-----
E---------------------------------------------------------------------------------------------|-----

Will die together in the end...

G------------------------------------------|--7--7-9-----7--7-9-----7--7-9--8--8--8--7--6--5--------
D------------------------------------------|--7--7-9-----7--7-9-----7--7-9--8--8--8--7--6--5--------
A------------------------------------------|--5--5/7-----5--5/7-----5--5/7--6--6--6--5--4--3--------
E------------------------------------------|--------------------------------------------------------

OOOODDDDDIIIIIINNNNNN!!!!! Outtro

G------7--7-9-----7--7-9-----7--7-9--8--8--8--7--6--5-----------5-----------7-----------7--7-9------
D------7--7-9-----7--7-9-----7--7-9--8--8--8--7--6--5-----------5-----------7-----------7--7-9------
A------5--5/7-----5--5/7-----5--5/7--6--6--6--5--4--3-----------3-----------5-----------5--5/7------
E---------------------------------------------------------------------------------------------------

G------7--7-9-----7--7-9--8--8--8--7--6--5--------7--7-9-----7--7-9-----7--7--7-9--8--8--8--7--6----
D------7--7-9-----7--7-9--8--8--8--7--6--5--------7--7-9-----7--7-9-----7--7--7-9--8--8--8--7--6----
A------5--5/7-----5--5/7--6--6--6--5--4--3--------5--5/7-----5--5/7-----5--5--5/7--6--6--6--5--4----
E---------------------------------------------------------------------------------------------------

Let this chord ring...

G---5-----------5-----------7-----------------------------||----------------------------------------
D---5-----------5-----------7-----------------------------||----------------------------------------
A---3-----------3-----------5-----------------------------||----------------------------------------
E---------------------------------------------------------||----------------------------------------

The middle part with the guitar solo is played faster than I tabbed it but I don't really feel like counting out
the notes (I'd get it wrong anyhow). I didn't bother tabbing the end because it's just the ladz hitting
random notes and screaming (or so it seems!) Anyhow, MANOWAR rocks, kick ass song, have fun.
Email me if it needs to be corrected although it sounds right to me... then again I'm completely tone deaf.
  development and support by
dmitry ivanov