rock
 
|tablatures   |lyrics   |discussion forums   |more tabs @ XGuitar.com

Manowar tabs

The Power guitar tab

Manowar: The Power(Louder than Hell)
Tabbed by HeXa(Heikki.Mustonen@kymp.net)

Standard Tuning

Comments: This is better version of Power. I made few corrections after seeing
Manowar on the Monsters of the Millennium Tour with Motörhead and Dio.
The solo is still quite mystery...At least the tabbing thing what Logan does
Live...

INTRO
|----------------------------------------------------------------------------|
|----------------------------------------------------------------------------|
|-----------------------------------------------------------------5--4-------|
|--------------------------------2-------------------------5------5--4-------|
|-7-9-10-9-7--5-7-5--5-7-9-7-5-7-2--7-9-10-9-7--5-7-5--5-7---9-7--3--2-------|
|--------------------------------0-------------------------------------------|

|----------------------------------------------------------------------------|
|----------------------------------------------------------------------------|
|----------------------------------------------------------------------------|
|-2-----------------------------------------5--------------------------------|
|-2-----------------------------------------5--------------------------------|
|-0-0-0-0-0-0-0-0-0-0-0-0-0-0-0-0-0-0-0-0-0-3-00-0etc...---------------------|

Riff A Chords

E G D C(Add last time B) 4x

Chorus: E E E E E E A E E E E E E G 4x
Riff A
Chorus
Bridge


Bridge

Bass & Guitar
|----------------------------------------------------------------------------|
|----------------------------------------------------------------------------|
|----------------------------------------------------------------------------|
|---5-4-2--------------------------------------------------------------------|
|-2-------5-3-2-----------2-----3-3-3-2---2-3-2---2-3-2---2--5-5-5-2-3-5-2-3-|
|---------------5-3-2-3-5---------------5-------5-------5--------------------|

|----------------------------------------------------------------------------|
|----------------------------------------------------------------------------|
|----------------------------------------------------------------------------|
|----------------------------------------------------------------------------|
|-5---7-7-7-3-----3-5-7--7-7-7-3-----3-5-7-----------------------------------|
|-------------5-7----------------5-7-----------------------------------------|

|----------------------------------------------------------------------------|
|----------------------------------------------------------------------------|
|-5-5-5-4---4-5-4---4-5-4---4--7-7-7-4-5-7-4-5-7--9-9-9-----5-7-9--9-9-9-----|
|---------7-------7-------7-----------------------------7-9--------------7-9-|
|----------------------------------------------------------------------------|
|----------------------------------------------------------------------------|

|----------------------------------------------------------------------------|
|----------------------------------------------------------------------------|
|-5-7-9----------------------------------------------------------------------|
|----------------------------------------------------------------------------|
|----------------------------------------------------------------------------|
|----------------------------------------------------------------------------|

  C              D
|----------------------------------------------------------------------------|
|----------------------------------------------------------------------------|
|----------------------------------------------------------------------------|
|---2-5-4-2---7----2-5-4-2---7-----------------------------------------------|
|-3---------5----3---------5-------------------------------------------------|
|----------------------------------------------------------------------------|


solo(The Rhythm goes just F# and G)
|--------14-15-18-15-14------------------------------------------------------|
|-17(19)----------------17-15-14---------------------------------------------|
|--------------------------------16-15----15---------------------------------|
|--------------------------------------17----17-16-14--------------------14--|
|-----------------------------------------------------17-16-14(16)----17-----|
|------------------------------------------------------------------15--------|
                       Dunno...but you can play this here
|----------------------------------------------------------------------------|
|-------12-14----15----14-12-14----12-15-14-12----------12-14-15-14-12-------|
|-12-14-------14----------------14-------------14-12-11----------------12-11-|
|----------------------------------------------------------------------------|
|----------------------------------------------------------------------------|
|----------------------------------------------------------------------------|

|----------10-12-14-12-10----------22-21-19----------------------19-20-24-20-|
|-11-12-14----------------14-12-------------22-20-19----19-20-22-------------|
|----------------------------------------------------21----------------------|
|----------------------------------------------------------------------------|
|----------------------------------------------------------------------------|
|----------------------------------------------------------------------------|
                     2x                                       2x
|-19---------------|-14-----14-----14-----14h18p14----14-----|-15-----15-----|
|-----22-20-19-----|-17(19)-17(19)-17(19)----------17-17(19)-|-18(20)-18(20)-|
|--------------21--|-----------------------------------------|---------------|
|------------------|-----------------------------------------|---------------|
|------------------|-----------------------------------------|---------------|
|------------------|-----------------------------------------|---------------|
                              2x
|-15-----15h20p15----15-----|-18-----18-----18----18h22p18----18-------------|
|-18(20)----------18-18(20)-|-21(23)-21(23)-21(23)---------21-21(23)---------|
|---------------------------|------------------------------------------------|
|---------------------------|------------------------------------------------|
|---------------------------|------------------------------------------------|
|---------------------------|------------------------------------------------|

|-19-19-19-22-22-22-24-24-24-24(24)-24(26)-24(26)-24(27)-24(27)-24(27)-------|
|----------------------------------------------------------------------------|
|----------------------------------------------------------------------------|
|----------------------------------------------------------------------------|
|----------------------------------------------------------------------------|
|----------------------------------------------------------------------------|

     Interlude
     2x
      B                        A                        G
|---|------------------------------------------------------------------------|
|-\-|------------------------------------------------------------------------|
|-\-|------------------------------------------------------------------------|
|-2-|-9p7p5-9p7p5-9p7p5-9p7p5--7p5p4-7p5p4-7p5p4-7p5p4--5p4p2-5p4p2-5p4p2-5p4|
|-2-|------------------------------------------------------------------------|
|-0-|------------------------------------------------------------------------|
     F#                       Fill (part 1)                     (part 2)
|----------------------------|---------------------------|-------------------|
|----------------------------|---------------------------|-------------------|
|----------------------T-----|-7-5-4--5-4-2--7-5-4--5-4-2|-7-5-4--5-4-2---4-2|
|p2--4p2p1-4p2p1-4p2p1-4p2p1-|---------------------------|--------------5----|
|----------------------------|---------------------------|-------------------|
|----------------------------|---------------------------|-------------------|

|----------------------------------------------------------------------------|
|----------------------------------------------------------------------------|
|----------------------------------------------------------------------------|
|-5-4-2----------------------------------------------------------------------|
|----------------------------------------------------------------------------|
|----------------------------------------------------------------------------|

Riff A
Chorus 3x
(At the end of 1st and 2nd play Fill part 2 and the last time play the whole
fill)
  development and support by
dmitry ivanov