rock
 
|tablatures   |lyrics   |discussion forums   |more tabs @ XGuitar.com

Manowar tabs

The Oath guitar tab

Manowar: The Oath (Sign of the Hammer)
Transcribed by HeXa(Heikki.Mustonen@kymp.net)

Standard Tuning

INTRO
|----------------------------------------------------------------------------|
|----------------------------------------------------------------------------|
|----------------------------------------------------------------------------|
|-9p5p2-9p5p2-9p5p2-9p5p2-10p5p2-10p5p2-10p5p2-10p5p2-11p5p2-11p5p2-11p5p2---|
|----------------------------------------------------------------------------|
|----------------------------------------------------------------------------|

|------------------------------------|---------------------------------------|
|------------------------------------|---------------------------------------|
|------------------------------------|---------------------------------------|
|-11p5p2-12p5p2-12p5p2-12p5p2-12p5p2-|-9p5p2-9p5p2-10p5p2-10p5p2-11p5p2-11p5p2
|------------------------------------|---------------------------------------|
|------------------------------------|---------------------------------------|

|---------------|------------------------------------------------------------|
|---------------|------------------------------------------------------------|
|---------------|------------------------------------------------------------|
|-12p5p2-12p5p2-|9p5p2-10p5p2-11p5p2-12p5p2-12p5p2-12p5p2-12p5p2-12p5p2/22(24)
|---------------|------------------------------------------------------------|
|---------------|------------------------------------------------------------|

Riff 1 4x
|----------------------------------------------------------------------------|
|----------------------------------------------------------------------------|
|--9-------------12--11-9-------------5---7----------------------------------|
|--9-------------12--11-9-------------5---7----------------------------------|
|--7-------------10--9--7-------------3---5----------------------------------|
|----0-0-0-0-0-0----------0-0-0-0-0-0----------------------------------------|

Riff 2
|--------0-------------------------------------------------------------------|
|--------0-------------------------------------------------------------------|
|-9------9-----7-----5-------------------------------------------------------|
|-9------9-----7-----5-------------------------------------------------------|
|-7------7-----5-----3-------------------------------------------------------|
|-0------0-------------------------------------------------------------------|

Play Riff 1 

Play Riff 2

Play Riff 1 

Play Riff 2

Play Riff 1

Play Riff 2

Play Riff 1

Chorus
|----------------------------------------------------------------------------|
|----------------------------------------------------------------------------|
|---------------------------------2---------2-----2--------------------------|
|----------------------9------2---2----2----2--2--2---2----------------------|
|-----7-------10----7---------2---0----2----0--2--0---2----------------------|
|--5--------8-----------------0--------0-------0------0----------------------|

Play Riff 1 2x

Play Riff 2

Play Riff 1

Play Riff 2

Play Riff 1

Play Riff 2

Play Riff 1

Play Riff 2

Play Riff 1

Play Chorus

Riff 3(I've sworn the oath...)
|3x--------------------------------------------------------------------------|
|----------------------------------------------------------------------------|
|-----5-5-5-5---------7-7-7-7---------9--------------------------------------|
|-----5-5-5-5---------7-7-7-7---------9--------------------------------------|
|-0-0-3-3-3-3-0-0-0-0-5-5-5-5-0-0-0-0-7--------------------------------------|
|----------------------------------------------------------------------------|

Solo 1 (Guitar 2 plays Riff 1 13x,Riff 2, Riff 1, Riff 2, Riff 1)
|-----------------------------------------------------15-12----12------------|
|-----------------------------------------------------------15----15-12-15-12|
|-2(4)-2(4)-2(4)-2(4)-2(4)-2(4)-2(4)-2(4)-br-2--2(4)-------------------------|
|----------------------------------------------------------------------------|
|----------------------------------------------------------------------------|
|----------------------------------------------------------------------------|

|----------------------------------------------------------------------------|
|----12----------------------------------------------------------------------|
|-14----14-12-14-12----12----------------------------------------------------|
|-------------------14----14-12-14-12----12----------------------------------|
|-------------------------------------14----14-12-14-12----12----------------|
|-------------------------------------------------------15----15-12-15-12-10-|

|----------------------------------------------------------------------------|
|----------------------------------------------------------------------------|
|-------------------------------------------10-12-10----12-10----12-10----12-|
|-------------------------10----10-12-10-12----------12-------12-------12----|
|-------10----10-12-10-12----12----------------------------------------------|
|-10-12----12----------------------------------------------------------------|

|---------------------------------------------------------19-19----19--------|
|------------------------------------------------------22-------22----22-19--|
|-10------------------------------------------2(4)---------------------------|
|----12---5-7-5---5-7---5----------------------------------------------------|
|---------------7-----7---7-5-3-7-5-3-2-5-3-2--------------------------------|
|----------------------------------------------------------------------------|

|----------------------------------------------------------------------------|
|----22-19----19-------------------------------------------------------------|
|-21-------21----21-19-21-19--------12/\/\/\/----12-14-14(16)----------------|
|----------------------------21--14-----------14---------------14-13-12-14-13|
|----------------------------------------------------------------------------|
|----------------------------------------------------------------------------|

|----------------------------------------------|-18-15-18-15-----------------|
|----------------------------------------------|-------------18-15-18-15-----|
|----------------------------------------------|-------------------------17--|
|-12-14-13-12-14-13-12----12-------------------|-----------------------------|
|----------------------14----14-12---12(14)----|-----------------------------|
|--------------------------------------------0-|-----------------------------|

|----------------------------------------------------------------------------|
|----------------------------------------------------------------------------|
|-15-17-15---------------------------------------------------------------12--|
|----------17-15-17-15--17-16-14-17-16-14-17-16-14-17-16-14--------12-14-----|
|------------------------------------------------------------12-14-----------|
|----------------------------------------------------------------------------|

|---------------|-15-14-12---------------------------------------------------|
|---------------|----------15-13-12------------------------------------------|
|-14(16)-br-----|-------------------14-12-11-----------12(14)/\/\/\/-14(16)/\|
|-----------14--|----------------------------14~/\/\/\-----------------------|
|---------------|------------------------------------------------------------|
|---------------|------------------------------------------------------------|

|----------15-12-15-12-15-12-15-17(19)------19----19----19-19-19-19-19--20-20|
|----------------------------------------17----17----17----17-17-17-17--17-17|
|----------------------------------------------------------------------------|
|----------------------------------------------------------------------------|
|----------------------------------------------------------------------------|
|-0//////--------------------------------------------------------------------|

|-20-20-20-20-20-20-20-20(22)---17-20----17----------------------------------|
|-17-17-17-17-17-17-17----------------20----20-17-20-17----17----------------|
|-------------------------------------------------------19----19-17-19-17-16-|
|----------------------------------------------------------------------------|
|----------------------------------------------------------------------------|
|----------------------------------------------------------------------------|

|-----------------|----------------------------------------------------------|
|-----------------|-------------12-13-12----12-------------------------------|
|-17-16-14-16-14~-|-------12-14----------14----14-12----12-------12----------|
|-----------------|-12-14----------------------------14----14-12----14-12----|
|-----------------|-------------------------------------------------------14-|
|-----------------|----------------------------------------------------------|

|------------------------------------------15-12-----------------------------|
|-------------------P.H-P.H-P.H------------------15-12-----------------------|
|---P.H--P.H--------9-7-9-7-9~-----2////---------------14--------------------|
|-0h2p0h2p0h2p0h2------------------2////-------------------------------------|
|----------------------------------0////-------------------------------------|
|----------------------------------------------------------0/\/\//-----------|

|-12-12-12-12-12-12-12-12-12-12-12-12-12-12-12-12---19----19----19----19-----|
|-17-17-17-17-15-15-15-15-13-13-13-13-12-12-12-12------17----17----17----17--|
|----------------------------------------------------------------------------|
|----------------------------------------------------------------------------|
|----------------------------------------------------------------------------|
|----------------------------------------------------------------------------|

|-19-19-19-19-19-19-19-------------------------------------------------------|
|-17-17-17-17-17-17-17-------------------------------------------------------|
|----------------------------------------------------------------------------|
|----------------------------------------------------------------------------|
|----------------------------------------------------------------------------|
|----------------------------------------------------------------------------|

Play Chorus

Play Riff 2

Play Riff 1

Play Riff 2

Play Riff 1

Play Riff 2

Play Riff 1

Play Riff 2

Play Riff 1

Play Chorus

Play Riff 3

Solo 2 (Guitar 2 plays Riff 1 4x, Riff 2, Riff 1, Riff 2, Riff 1)
|-19-19-19-19-19-17-19-17----17-------17-------------------------------------|
|-------------------------20----20-17----20-17-15-17-15-13-15-13-12-13-12----|
|-------------------------------------------------------------------------14-|
|----------------------------------------------------------------------------|
|----------------------------------------------------------------------------|
|----------------------------------------------------------------------------|

|-----------------------------------------|----------------------------------|
|-13-12----12-----------------------------|----------------------------------|
|-------14----14-12-14-12----12-----------|-------------11-12-14-11-12-14-11-|
|-------------------------14----14-12-----|-------12-14----------------------|
|-------------------------------------14--|-12-14----------------------------|
|-----------------------------------------|----------------------------------|

|----------------------------------|-----------------------------------------|
|----------------------------------|-----------------------------------------|
|-12-14-11-12-14-11-12-14----------|-------------------------------11-12-14--|
|-------------------------14-12----|----11-12-14-12-11----11-12-14-----------|
|-------------------------------14-|-14----------------14--------------------|
|----------------------------------|-----------------------------------------|

|----------------------------------------------------------------------------|
|-------------------12-14-15-14-12-------------------------------------------|
|----------11-12-14----------------14-12-11----------------------------------|
|-11-12-14----------------------------------14-12-11-------------------------|
|----------------------------------------------------14----------------------|
|--------------------------------------------------------0\------------------|

|----------------------------------------------------------------------------|
|----------------------------------------------------------------------------|
|----------------------------------------------------------------------------|
|------------9--7---------------------------------------------------------12-|
|-7--10-9-10-------10-9-10-9-----7----------------------12-14-12----12-14----|
|-----------------------------10---------12-15-12-15-12----------15----------|

|------|---------------------------------------------------------------------|
|------|--12-----------------------------------------------------------------|
|------|-----14-12-11-12-14-11-12--------12-14-12----12----------------------|
|-14~--|--------------------------14--------------14----14-12-14-12----12----|
|------|------------------------------------------------------------14----14-|
|------|---------------------------------------------------------------------|

|----------------------------------------------------------------------------|
|----------------------------------------------------------------------------|
|-----12/\/\/----12-14-12-----12-14-12-----12-14-12-14-12----12--------------|
|-----12/\/\/-------------14-----------14-----------------14----14-12--------|
|-12------------------------------------------------------------------14-12--|
|----------------------------------------------------------------------------|

|----------------------------------------------------------------------------|
|-15-15----------------------------------------------------------------------|
|-------14-14----------------------------------------------------------------|
|-------------14-14----------------------------------------------------------|
|-------------------14-14----------------------------------------------------|
|--------------------------15(17)--------------------------------------------|
  development and support by
dmitry ivanov