rock
 
|tablatures   |lyrics   |discussion forums   |more tabs @ XGuitar.com

Manowar tabs

The Fight For Freedom guitar tab

First there's a piano part, after that it's this:

E-------------------------------------------------
B-------------------------------------------------
G----5--7--5------5--3--5---7--3--2--3---3--5-----
D-3--5--7--5---3--5--3--5---5--3--2--3---3--5--3--
A-3--3--5--3---3--3--1--3---7--5--0--1---1--3--3--
E-1------------1-------------------------------1--

Then there's again nothing to play, after that, again:

E-------------------------------------------------
B-------------------------------------------------
G----5--7--5------5--3--5---7--3--2--3---3--5-----
D-3--5--7--5---3--5--3--5---5--3--2--3---3--5--3--
A-3--3--5--3---3--3--1--3---7--5--0--1---1--3--3--
E-1-----------1--------------------------------1--

E----------------------------------------------------------
B----------------------------------------------------------
G---------------3--3-3-3--3-3------------------------------
D-5--5-5-5--5-5-3--3-3-3--3-3-3--3-3-3--3-3-3--3-3-3--3-3--
A-5--5-5-5--5-5-1--1-1-1--1-1-3--3-3-3--3-3-3--3-3-3--3-3--
E-3--3-3-3--3-3---------------1--1-1-1--1-1-1--1-1-1--1-1--
 |_______________________________________________________|
                p.m

E--------------------------------------------------
B--------------------------------------------------
G---------------3--3-3-3--3-3----------------------
D-5--5-5-5--5-5-3--3-3-3--3-3-3--3-3-3--3-3--3--3--
A-5--5-5-5--5-5-1--1-1-1--1-1-3--3-3-3--3-3--3--3--
E-3--3-3-3--3-3---------------1--1-1-1--1-1--1--1--
 |_________________________________________|
                p.m
E----------------------------------------------------------
B----------------------------------------------------------
G---------------3--3-3-3--3-3------------------------------
D-5--5-5-5--5-5-3--3-3-3--3-3-3--3-3-3--3-3-3--3-3-3--3-3--
A-5--5-5-5--5-5-1--1-1-1--1-1-3--3-3-3--3-3-3--3-3-3--3-3--
E-3--3-3-3--3-3---------------1--1-1-1--1-1-1--1-1-1--1-1--
 |_______________________________________________________|
                       p.m

E--------------------------------------------
B--------------------------------------------
G---------------3--3-3-3--3-3-5-5-5-5-5-5-5--
D-5--5-5-5--5-5-3--3-3-3--3-3-5-5-5-5-5-5-5--
A-5--5-5-5--5-5-1--1-1-1--1-1-3-3-3-3-3-3-3--
E-3--3-3-3--3-3------------------------------
 |_________________________________________|
                p.m


E-19b-
B-----
G-----
D-----
A-----
E-----

Then it's the solo but I didn't found it yet, and then it's still the same as in the begin
That's it, have fun!!
  development and support by
dmitry ivanov