rock
 
|tablatures   |lyrics   |discussion forums   |more tabs @ XGuitar.com

Manowar tabs

The Demon's Whip guitar tab

Artist/ Band : Manowar
Song : Demon's Whip
Album : Triumph of Steel
Transcribed By : Dave Thornus

intro
|--------------------------|      |-----------|
|--------------------------|      |-----------|
|--------------------------|      |-----------|
|-------------4------------| x 4  |--4--------|
|----4---4------0-2-3------|      |--4--------|
|--0-2-0-2--0--------------|      |--2-\slide-|

riff 1
|--------------------------|      |-----------| 
|--------------------------|      |-----------|  
|--------------------------|      |-----------|
|-------------4------------| x2   |--4--------|
|----4---4------0-2-3------|      |--4--------|
|--0-2-0-2--0--------------|      |--2-\slide-|

I don't know how often riff 1 is repeated, just listen to the song.

Riff 2
|-----------------------------------------|
|-----------------------------------------|
|-----------------------------------------|
|-4----7----4----2---2-------7----4----6--|
|-4----5-\--2-\--0---0-2-4---5-\--2-\--4--|
|-2-\------------------0-2-\--------------|

riff 3
|--------------------------------------------|
|--------------------------------------------|
|--------------------------------\high slide-|
|--------------------------------------------|
|--------------------------------------------|
|--22222222222222222222222222222-----22222---|
I don't know where you precicely have to slide
just try something until it sounds great.

Riff 4 ( the heavy stuff )
|--------------------------------------------------------|
|--------------------------------------------------------|
|--------------------------------------------------------|
|--------------------------------------------------------|
|--------------------------------------------------------|
|--222222222222222222222222222222222222222 till you drop-|

fill
(guitar 2)
feel the demon's whip demon's whip
                              |------|
                              |------|
                              |------|
                              |-777--|
                              |-555--|
                              |------|

Manowar: Demon's whip solo(The Triumph of Steel)
Transcribed by HeXa(Heikki.Mustonen@kymp.net)

Standard Tuning

       Sweep            
|---------------------16-21-16------------------------15-20-15---------------|
|------------------17----------17------------------16----------16------------|
|---------------18----------------18------------17----------------17---------|
|------------18------------------------------17------------------------------|
|------16-19---------------------------15-18---------------------------------|
|-3\-------------------------------------------------------------------------|

|----------------------------------------------------------------------------|
|---------------17p14h17p14h17p14h17ph14h17p14h17p14h17p14h17p14h17p14-------|
|---------------(bend-down-randomly)-----------------------------------------|
|-10--14---------------------------------------------------------------------|
|---------12~----------------------------------------------------------------|
|----------------------------------------------------------------------------|

|---------17(19)-17(19)-19(21)-----14-15-18-14-15-14----15-14----------------|
|-17(19)---------------------------------------------17-------17-15-17-15-17-|
|----------------------------------------------------------------------------|
|----------------------------------------------------------------------------|
|----------------------------------------------------------------------------|
|----------------------------------------------------------------------------|

|------------------------------------------------------17(18)--17(19)--17(19)|
|-15-14----15-14------------------------------15-17-19-----------------------|
|-------16-------16-15---------------15-16-18--------------------------------|
|----------------------17-16~--16-17-----------------------------------------|
|----------------------------------------------------------------------------|
|----------------------------------------------------------------------------|

with Wah-Wah
|----------------------------------------------------------------------------|
|----------------------------------------------------------------------------|
|-------------------------------------------------------9/11~----------------|
|---------7-/9---7----------------------7/9---7------------------------------|
|-9-x-9-x-----------9-7-8-9~----9-x-9-x----------9-7-8-----------------------|
|----------------------------------------------------------------------------|

                                            Put the sound 2 octave higher
                                            
|(bend-down--------------------------------)-21-19-17-19-17----17------------|
|-----------------------------------------------------------21----21-19-21-19|
|-2(4)-3(5)-4(6)-5(7)-6(8)-7(9)-8(10)-9(11)----------------------------------|
|----------------------------------------------------------------------------|
|----------------------------------------------------------------------------|
|----------------------------------------------------------------------------|

|----------------------------------------------------------------------------|
|-18-19-18----18-------------------------------------------------------------|
|----------19----19-18-19-18----18-------------------------------------------|
|----------------------------21----21-19-21-19-17----------------------------|
|----------------------------------------------------------------------------|
|----------------------------------------------------------------------------|

With Wah-Wah
|----------------------------------------------------------------------------|
|----------------------------------------------------------------------------|
|----------------------------------------------------------------------------|
|---------7-/9---7----------------------7/9---7--------9(11)-----------------|
|-9-x-9-x-----------9-7-8-------9-x-9-x----------9-7-8-----------------------|
|-------------------------0\-------------------------------------------------|

  T     T     T     T     T     T     T     T     T     T     T     T
|-9p7p5-9p7p5-9p7p5-9p7p5-9p7p5-9p7p5-9p7p5-9p7p5-9p7p5-9p7p5-8p7p5-8p7p5----|
|----------------------------------------------------------------------------|
|----------------------------------------------------------------------------|
|----------------------------------------------------------------------------|
|----------------------------------------------------------------------------|
|----------------------------------------------------------------------------|
  T     T     T     T     T     T     T     T
|-8p7p5-8p7p5-8p7p5-8p7p5-8p7p5-8p7p5-8p7p5-8p7p5-21~------------------------|
|----------------------------------------------------------------------------|
|----------------------------------------------------------------------------|
|----------------------------------------------------------------------------|
|----------------------------------------------------------------------------|
|----------------------------------------------------------------------------|

With Wah-Wah
|---------------------------17-14---------------------14\---//12---------21~-|
|---------------------------------17-14---------------------//12------19-----|
|---------------------------------------16-14---------------//12---18--------|
|---------7-/9-7------------------------------14~----------------------------|
|-9-x--9---------9-7-8-9~----------------------------------------------------|
|----------------------------------------------------------------------------|

|/\/\/\/\/\/\/\/-------------------------------------------------------------|
|--------------------//11(13)---//11(13)------------------------14-13~-------|
|--------------------------------------------14--11------11~------------14-11|
|----------------------------------------------------14----------------------|
|----------------------------------------------------------------------------|
|----------------------------------------------------------------------------|

|-12(14)-------------------17-16-14-19-16-14-17-16-14-19-16-14-17-16-14-19-16|
|------------0/\/\/\/\/------------------------------------------------------|
|------------0/\/\/\/\/------------------------------------------------------|
|----------------------------------------------------------------------------|
|----------------------------------------------------------------------------|
|----------------------------------------------------------------------------|

|-14-17-16-14-17-16-14----16-14-------14----------------14-16-17-16-14-------|
|----------------------17-------17-16----17-16-14-16-17----------------17-16-|
|----------------------------------------------------------------------------|
|----------------------------------------------------------------------------|
|----------------------------------------------------------------------------|
|----------------------------------------------------------------------------|


|-17--14---------------------------------------------------------------------|
|----------17--14---------------16--14---------------------------------------|
|-------------------16--14------16--14-----------14--------------------------|
|---------------------------16----------16-14-16----16-14--------------------|
|----------------------------------------------------------------------------|
|----------------------------------------------------------------------------|

|-------------14-------------------------------------------------14----------|
|-17-14-16-17----17-16-14-16-17-16-14----14-16-17-16-17-14-16-17----17-16-14-|
|-------------------------------------16-------------------------------------|
|----------------------------------------------------------------------------|
|----------------------------------------------------------------------------|
|----------------------------------------------------------------------------|

|----------------------------------------------------------------------------|
|-17-16-14----------14-16-17-17-16-14----14-16-14----------------------------|
|----------16-14-16-------------------16----------16-14-13-14-16-14-13-------|
|----------------------------------------------------------------------16-14-|
|----------------------------------------------------------------------------|
|----------------------------------------------------------------------------|

|----------------------------------------------------------------------------|
|----------------------------------------------------------------------------|
|-14-13----------------------------------------------------------------------|
|-------16-14-13-14-16-14-13----4--------------------------------------------|
|-------------------------------4--------------------------------------------|
|-------------------------------2--------------------------------------------|
  development and support by
dmitry ivanov