rock
 
|tablatures   |lyrics   |discussion forums   |more tabs @ XGuitar.com

Manowar tabs

Swords In The Wind bass tab

Manowar: Swords in the Wind

Tuning: Drop D
----------------------------------------------------------------------------------------------------------------
guitar plays until 1:10

  at 1:10 you come in with
G[---------------------------------]
D[---------------------------------]
A[---------------------------------] 2x
D[--0-------8------7------0--------]

  1:25
[----------------------------------]
[----------------------------------]
[-----------------------------/15--]
[--5---7---7---0---8---5--10-------]

  1:41
[----------------------------------]
[----------------------------------]
[--1---3---------------------------] 2x
[---------3---2---0----------------]

  1:55
[----------------------------------]
[----------------------------------]
[--1---3----0---4---5--------------]
[----------------------------------]

  2:03
[----------------------------------]
[----------------------------------]
[---1---1-----3/15-----------------]
[----------------------------------]

   then the heavy part comes in at 2:14
[---------------------------------]
[---------------------------------]
[---------------------------------] 2x
[--0----8----7----3----2----0-----]

  2:29
[----------------------------------]
[----------------------------------]
[-----------------------------/15--]
[--5---7---7---0---8---9--10-------]

  2:45
[---------------------------------]
[---------------------------------]
[---------------------------------] 2x
[--0----8----7----3----2----0-----]

  3:00
[----------------------------------]
[----------------------------------]
[-----------------------------/15--]
[--5---7---7---0---8---9--10-------]

  3:15
[----------------------------------]
[----------------------------------]
[--1---3---------------------------] 2x
[---------3---2---0----------------]

  3:30
[----------------------------------]
[----------------------------------]
[--1---3----0---4---5--------------]
[----------------------------------]

  3:38
[----------------------------------]
[----------------------------------]
[---1---1-----3/15-----------------]
[----------------------------------]

  3:46
[----------------------------------]
[----------------------------------]
[--1---3---------------------------] 2x
[---------3---2---0----------------]

  4:01
[----------------------------------]
[----------------------------------]
[--1---3----0---4---5--------------]
[----------------------------------]

  4:09
[----------------------------------]
[----------------------------------]
[---1---1-----3/15-----------------]
[----------------------------------]


after that, keep repeating from the
3:46 mark until you fade out.


rate the tab please
  development and support by
dmitry ivanov