rock
 
|tablatures   |lyrics   |discussion forums   |more tabs @ XGuitar.com

Manowar tabs

Spirit Horse Of The Cherokee guitar tab

Manowar- Spirit Horse of the Cherokee
By Joey DeMaio

Tabbed By Dave Thornus

Riff 1    Riff 2
|-----||  |-----------------||
|-----||  |-----------------||
|-----||  |-----------------||
|--2--||  |----------7------||
|--2--||  |--2---5---5---2--||
|--0--||  |--0---3-------0--||        

Riff3
|------------------------------------------||
|------------------------------------------||
|------------------------------------------||
|------------------------4---5---2---4-----||
|-222---222---222---222--2---3---0---2-----||
|-000---000---000---000--------------------||
P.M..   ...   ...   ...

Riff 4
|----------------------------------------------------------||
|----------------------------------------------------------||
|----------------------------------------------------------||
|-------------------9--------------9---7-------------------||
|-2-----2--7-----9--7----2--7------7---5-9----7---5--7-----||
|-0-----0--5-----7-------0--5------------7----5---3--5-----||

Riff 5
|--------------------||
|--------------------||
|--------------------||
|----------------7---||
|--2--4-5-----7--5---||
|--0--2-3-----5------||

Riff 6 ( not the real thing but sounds o.k.) Riff 7
|------------------------------------||      |------------------------||
|------------------------------------||      |------------------------||
|------------------------------------||      |------------------------||
|------------------------------------||      |-9-9-7-9----------------||
|--7-7-5-7-7-5-----------------------||      |-7-7-5-7-drums-9-9-7-9--||
|--------------7-5--5-5-5-7-7-5-3-0--||      |---------------7-7-5-7--||

end.
|-----||
|-----||
|-----||
|--2--||
|--2--||
|--0--||

Song Structure

Riff 1 x4
Riff 2 x2
Riff 3 x2
Riff 1 x4
Riff 2 x2
Riff 3 x2
Riff 4 x1
Riff 5 x3
Riff 2 x6
Riff 6 x2
Riff 7 x2
End    x1
  development and support by
dmitry ivanov