rock
 
|tablatures   |lyrics   |discussion forums   |more tabs @ XGuitar.com

Manowar tabs

Return Of The Warlord guitar tab

Manowar: The Return of the Warlord
Transcribed by HeXa(Heikki.Mustonen@kymp.net)

Standard Tuning

Huge thanks to Mark Guttenberg! Thanks for making the Original tab!

Intro 2x
|--------------|-------------------------------------------------------------|
|--------------|-------------------------------------------------------------|
|--------------|-------------------------------------------------------------|
|--------------|-------------------------------------------------------------|
|-2-----5-5--2-|--7--7---2-----5--5--2---------------------------------------|
|-0-----3-3--0-|--5--5---0-----3--3--0---------------------------------------|

Riff 1 4x
|----------------------------------------------------------------------------|
|----------------------------------------------------------------------------|
|----------------------------------------------------------------------------|
|---------------------------------------------------------------------5---4--|
|---------------------------------------------------------------------3---2--|
|-0-0-0-0-0-0-0-0-0-0-0-0-0-0-0-0-0-0-0-0-0-0-0-0-0-0-0-0-0-0-0-0-0-0--------|

|----------------------------------------------------------------------------|
|----------------------------------------------------------------------------|
|----------------------------------------------------------------------------|
|----------------------7---7--/9---------------------------------------------|
|----------------------5---5--/7---------------------------------------------|
|-0-0-0-0-0-0-0-0-0-0--------------------------------------------------------|

Chorus
|----------------------------------------------------------------------------|
|----------------------------------------------------------------------------|
|----------------------------------------------------------------------------|
|-12----7-----9-----5-----3-----5-----3-----5---3-----------4--------5-------|
|-10----5-----7-----3-3-3-3-3-3-3-3-3-3-3-3-3-3-3-3----5----2--2-----3-------|
|------------------------------------------------------3-------0-------------|

|-----------|2x(only-1st-chorus)---------------------------------------------|
|-----------|----------------------------------------------------------------|
|-----------|----------------------------------------------------------------|
|-----------|--9----7----9-----9-----12-------9------------------------------|
|-----------|--7----5----7-----7-----10-------7------------------------------|
|-0-0-0-0-0-|-----0----0----------0-------0----------------------------------|

Play Riff 1 4x

Play Chorus(Don't play the last pattern)


Fill
|----------------------------------------------------------------------------|
|----------------------------------------------------------------------------|
|----------------------------------------------------------------------------|
|-7---5----7-----------------------------------------------------------------|
|-5---3----5----2\\\\\\\-----------------------------------------------------|
|---------------0\\\\\\\\----------------------------------------------------|


Solo Backround: Sth like E many times and then C5, G5

Right after the solo:
|----------------------------------------------------------------------------|
|----------------------------------------------------------------------------|
|----------------------------------------------------------------------------|
|----------------------------------------------------------------------------|
|-9----7----5----2\\\\\\\----------------------------------------------------|
|-7----5----3----0\\\\\\\----------------------------------------------------|

Riff 2
|----------------------------------------------------------------------------|
|----------------------------------------------------------------------------|
|-----------------------------------------------------------...put-here-some-|
|--------------------------------------------------------------------slidin..|
|----------------------------------------------------------------------------|
|-0-0-0-0-0-0-0-0-0-0-0-0-0-0-0-0-0-0-0-0-0-0-0-0-0-0-0-0-0-0-0-0-0-0-0-0-0-0|


Chorus 2
|----------------------------------------------------------------------------|
|-------------------13----13----13----13----13-------------------------------|
|-------------------15(17)15(17)15(17)15(17)15(17)---------------------------|
|-12----7-----9-----5-----3-----5-----3-----5---3-----------4--------5-------|
|-10----5-----7-----3-3-3-3-3-3-3-3-3-3-3-3-3-3-3-3----5----2--2-----3-------|
|------------------------------------------------------3-------0-------------|

               Outro Solos starts here...
|----------------------------------------------------------------------------|
|----------------------------------------------------------------------------|
|----------------------------------------------------------------------------|
|--------------9----7----9-----9-----12-------9------------------------------|
|--------------7----5----7-----7-----10-------7------------------------------|
|-----------------0----0----------0-------0----------------------------------|


Outro Solo (Chorus 5 times)
|-----------------------------------------------------14(16)br-14------------|
|----------------------------------12-14-15-14~-14-16-------------14---------|
|-------------------------11-12-14-------------------------------------------|
|----------------11-12-14----------------------------------------------------|
|-------10-12-14-------------------------------------------------------------|
|-12-14----------------------------------------------------------------------|

|-16(18)-16-14----14-16-14----14-16-14----14-16-14----14-16-14----14---------|
|--------------16----------16----------16----------16----------16----16-14---|
|----------------------------------------------------------------------------|
|----------------------------------------------------------------------------|
|----------------------------------------------------------------------------|
|----------------------------------------------------------------------------|

|----------------------------------11-|----15-19-15----15-19-17-15----15-19--|
|-16-14----14-------------------14----|-17----------17-------------17--------|
|-------15----15-13-11~--13(15)-------|--------------------------------------|
|-------------------------------------|--------------------------------------|
|-------------------------------------|--------------------------------------|
|-------------------------------------|--------------------------------------|

|--20-19-17-15-14-17-15-14----17-15-14--------------------17(19)-17(19)-17(21)
|--------------------------17----------17-15~---17p15--15--------------------|
|----------------------------------------------------------------------------|
|----------------------------------------------------------------------------|
|----------------------------------------------------------------------------|
|----------------------------------------------------------------------------|

|-17(19)-17(19)-|----------17-19-20-19-17----19-17---------------------------|
|---------------|-17-19-20----------------20-------20-19-17-20-19-17---------|
|---------------|----------------------------------------------------19-17-16|
|---------------|------------------------------------------------------------|
|---------------|------------------------------------------------------------|
|---------------|------------------------------------------------------------|

|---------------------------------------------|------------------------------|
|---------------------------------------------|------------------------------|
|----------19-17-16~---14--12--11\\\---9~--\7-|------------------------------|
|-19-17-16------------------------------------|------------------------------|
|---------------------------------------------|------------------------------|
|---------------------------------------------|-12p8h12p8h12p8h12p8h12\\\\\\\|

|-24--------------------22(24)---------------17-19-20~-20-19-17-19-17----17--|
|----24--------------22-------------17-19-20--------------------------20----20
|-------24-19-----19-------------19------------------------------------------|
|----------------------------------------------------------------------------|
|----------------------------------------------------------------------------|
||Natural-harm.|-------------------------------------------------------------|

|----------------------------------------------------------------------------|
|-19-17-20-19-17----17-------------------------------------------------------|
|----------------19----19-17-19-17-16----------17-16----17-16----------------|
|-------------------------------------19-17-16-------19-------19...Fade-out--|
|----------------------------------------------------------------------------|
|----------------------------------------------------------------------------|


Manowar: Return of the Warlord solo(Louder than Hell)
Transcribed by HeXa(Heikki.Mustonen@kymp.net)

Standard Tuning

                       
|------------------------|-----------------------P.H-------------------------|
|------------------------|-20-----20-----20------20(22)--20-16-15------------|
|------------------------|-19(21)-19(21)-19(21)-------------------19-17-16---|
|------------------------|---------------------------------------------------|
|------------------------|---------------------------------------------------|
|-0\---/\/\/\/\/\/\/\/\/-|-------------------------------------------------0\|

|----------------------------------------------------------------------------|
|-------------------------------------------------------T-----T-----T--------|
|-T-----T-----T-----T-----T-----T-----T-----T-----T-----6p4p2-6p4p2-6p4p2----|
|-6p4p2-6p4p2-6p4p2-7p6p4-7p6p4-7p6p4-9p7p6-9p7p6-9p7p6----------------------|
|----------------------------------------------------------------------------|
|----------------------------------------------------------------------------|

|-------------------------------------T-----T-----T-----T-----T-----T--------|
|-T-----T-----T-----T-----T-----T-----7p5p3-7p5p3-7p5p3-9p7p5-9p7p5-9p7p5----|
|-7p6p4-7p6p4-7p6p4-9p7p6-9p7p6-9p7p6----------------------------------------|
|----------------------------------------------------------------------------|
|----------------------------------------------------------------------------|
|----------------------------------------------------------------------------|

|-T------T------T------T-------T-------T-------T--------T--------T-----------|
|-10p9p7-10p9p7-10p9p7-12p10p9-12p10p9-12p10p9-14p12p10-14p12p10-14p12p10----|
|----------------------------------------------------------------------------|
|----------------------------------------------------------------------------|
|----------------------------------------------------------------------------|
|----------------------------------------------------------------------------|

|-14p12h14p12h14-----------14p12h14p12h14p12----------14p12h14p12h14---------|
|----------------15-13-12--------------------15-13-12----------------15-13-12|
|----------------------------------------------------------------------------|
|----------------------------------------------------------------------------|
|----------------------------------------------------------------------------|
|----------------------------------------------------------------------------|

|-------|---------------14---------------14-14----19(21)-br------------------|
|-------|-17(19)-17(19)----17(19)-17(19)----17(19)----------17---------------|
|-14-13-|--------------------------------------------------------------------|
|-------|--------------------------------------------------------------------|
|-------|--------------------------------------------------------------------|
|-------|--------------------------------------------------------------------|


Use flutter...I quess.
|-12-10-12-10-9----9---------|-17-16-14-------------14-----------------------|
|---------------12---12-10-9-|----------17-15-14-------17-15-14----15-14-----|
|----------------------------|-------------------16-------------16-------16-14
|----------------------------|-----------------------------------------------|
|----------------------------|-----------------------------------------------|
|----------------------------|-----------------------------------------------|

|----------------------------------------------------------------------------|
|-14-------------------------------------------------------------------------|
|----16-14-13-16-14-13----14-13--------------------13-14-16----------13-14-16|
|----------------------16-------16-14-12--12-14-16----------12-14-16---------|
|----------------------------------------------------------------------------|
|----------------------------------------------------------------------------|

|----------|-4----6-----7------9------11-----14------14-17-15-14----14-17-15-|
|-14-15-17-|-7(9)-9(11)-10(12)-12(14)-14(16)-17(19)--------------17----------|
|----------|-----------------------------------------------------------------|
|----------|-----------------------------------------------------------------|
|----------|-----------------------------------------------------------------|
|----------|-----------------------------------------------------------------|

|-14-----21(13)-|-21(23)-21(23)-21(23)-21(23)-19-19-19-19-19--17-19-17----17-|
|----17---------|------------------------------------------------------21----|
|---------------|------------------------------------------------------------|
|---------------|------------------------------------------------------------|
|---------------|------------------------------------------------------------|
|---------------|------------------------------------------------------------|

|-17-------------------------------------------------------------------------|
|----21-19-17-19-17----17-------17-------------------------------------------|
|-------------------19----19-18----19-18-16-19-18-16----16----------------16-|
|----------------------------------------------------19----19-18-16-18-19----|
|----------------------------------------------------------------------------|
|----------------------------------------------------------------------------|

|-------------------------------|-----------------------------------------11-|
|-------------------------------|--------------------------------11-13-14----|
|-18-19----------16-18-19-------|-----------------------10-11-13-------------|
|-------19-18-16----------19-18-|---------------9-11-13----------------------|
|-------------------------------|-------9-11-13------------------------------|
|-------------------------------|-11-13--------------------------------------|

|-13-14-16-14-13-------------------------------------------------------------|
|----------------16-14--------------------------------------------------16-18|
|----------------------16-14-12--------------------------------15-16-18------|
|-------------------------------16-14-12--------------15-16-18---------------|
|----------------------------------------15-14-12--18------------------------|
|----------------------------------------------------------------------------|
                                                 T     T     T     T     T
|---16-18-19----------18-19-21-21(13)-br21-19-18|19p16-19p16-19p16-21p18-21p18
|19----------18-19-21---------------------------|----------------------------|
|-----------------------------------------------|----------------------------|
|-----------------------------------------------|----------------------------|
|-----------------------------------------------|----------------------------|
|-----------------------------------------------|----------------------------|
  T     T     T     T
|-21p18-23p19-23p19-23p19----------------------------------------------------|
|----------------------------------------------------------------------------|
|----------------------------------------------------------------------------|
|----------------------------------------------------------------------------|
|----------------------------------------------------------------------------|
|----------------------------------------------------------------------------|
  development and support by
dmitry ivanov