rock
 
|tablatures   |lyrics   |discussion forums   |more tabs @ XGuitar.com

Manowar tabs

Pleasure Slave guitar tab

Pleasure Slave
Tabbed by Jason R. Keyes (jrk@edgenet.net) 
This song can be found on the Kings of Metal CD. It is a bonus track and will not be found on vinyl or tape. 
More of my tablature may be obtained from http://www3.edgenet.net/jrk. 
Always remember: "Other bands play, but Manowar kills!" 
Intro:
|-------------------------------------------------|
|-------------------------------------------3-----|
|--------------------------------------2-2--2--4--|
|-----------2--0-----------------------2-2--0--4--|
|--7-\-2-X--------2--0-----------------0-0-----2--|
|--0---0-X--------------2~-p-0---2-/-4------------|
The verse is a simple C-D-E progression:
|---------------|   This progression is played in reverse at the end of
|-------3----5--|   each verse.  Also there is a second guitar track which
|--5----2----4--|   is nothing more than these chords played appregiated
|--5----0----2--|   in the same order.  Listen to the CD to get the timing
|--3------------|   down.
|---------------|
As for the solo, it's in E (obviously).  I would be doing Manowar a great
injustice if I attempted to tab it -- I refuse to usurp Ross the Boss.
Key:
      X       Muted note or pick slide
      \ or /  Slide from note on left to note on right
      ~       Add vibrato to note
      p       Pull-off from note on left to note on right

Manowar: Pleasure Slave solo(Kings of Metal)
Transcribed by HeXa(Heikki.Mustonen@kymp.net)

Standard Tuning


|---------------------------15\--|-------------------------------------------|
|--------------------------------|-------------------------------------------|
|------------------12------------|-2(4)-2(4)-2(4)-2(4)-2(4)-2(4)-0-2-0---2-0-|
|------------------12------------|-------------------------------------2-----|
|--------------------------------|-------------------------------------------|
|-0\(bend-down)------------------|-------------------------------------------|

|----------------------------------------|-----------------------------------|
|----------------------------------------|-----------------------------------|
|---2-0---2-0-----7-4---7-4---7-4---7-4--|-12-9----12-9----12\/\/\/\/\/------|
|-2-----2-----2-------7-----7-----7----7-|------12------12-------------------|
|----------------------------------------|-----------------------------------|
|----------------------------------------|-----------------------------------|

|-10(12)---------------------------------------------------------------------|
|------------------------------------------------5-8(10)-br-5----------------|
|---------12(14)///////\/\/\-----------------5-7--------------7-5------------|
|----------------------------------------5-7----------------------7-5-------5|
|--------------------------------2-----7------------------------------7-5-7--|
|----------------------------------------------------------------------------|

|-------------------------------------8/////-|-------------------------------|
|-----------------------8(10)-br-5----8/////-|-------------------------------|
|-----------5-7-5---5-7----------------------|----12-14(16)-14(16)-12-14-12--|
|-7-5---5-7-------7--------------------------|-14----------------------------|
|-----7--------------------------------------|-------------------------------|
|--------------------------------------------|-------------------------------|

|------15(17)-12-15-12-----------------------|----------12(14)---------------|
|----------------------15-12-----------------|-------------------------------|
|----------------------------14(16)-br-12----|-10(12)-9----------------------|
|-14-----------------------------------------|-------------------------------|
|-----------------------------------------14-|-------------------------------|
|--------------------------------------------|-----------------0-\/\/\/\/\/\/|

|----------------------------------------------------------------------------|
|----------------------------------------------------------------------------|
|-----------12-14(16)-br-12----------------12-14(16)-br-12-------------------|
|-----12-14-----------------14-12----12-14-----------------------------------|
|--14-----------------------------14-----------------------------------------|
|----------------------------------------------------------------------------|

The Rest is pure improvisation.
  development and support by
dmitry ivanov