rock
 
|tablatures   |lyrics   |discussion forums   |more tabs @ XGuitar.com

Manowar tabs

Number One guitar tab

NUMBER 1

Tabbed by Nightwolf

E5

We belong to the world We belong to the wind We are the spirit at the 
competitions End

--- G5 -D5 - E5-----------------------------G5 - D5 - E5

Turning hours into day --------------Burning muscles feel the pain

D5 - - - G5 - - E5

The heart and soul of discipline my friends

G5 - - D5 - - E5 - - - - - - D5 - - G5 - - E5

E5 
-------------------------G5-D5-E5---G5-D5-E5------------------------D5--
G5--E5

We are sending you a challenge Its very clear We came to win that is why 
we are here

E5 - -- - - - - - - - 
G5-D5-E5-------G5-D5-E5------------------------D5-G5-E5-

Demanding to be tested Tested by the best Not to be forgotten like all 
the rest

G5 - --A5 -- 
-----E5------------------G5--------A5------------E5----------------

Let the game begin Hear the starting gun Play from the heart today we 
will overcome

C5 
--------------D5---------E5------------C5------D5-----------G5----D5---E
5---D5-G5-E5

When the game is over all the countings done we were born to win Number 
1

solo riff

E5 - - - - - - - - - - - - - - - - D5- - - - - - - - - - - - - - - x4 or 
8 

G5 -- - - --- - A5----- - --- E5-- - - -- - - - -- --- - - 

Not too sure what happens here I can't think at the moment!

Anybody got an easier way to tab this shit Mail Me!!!!!!

Nightwolf - - - - - austrans@ozemail.com.au

				      ManOwaR

			             Number 1
			   from the album Louder than hell.
			    Tabs made by Kimmo Kujansuu.

				      (Solo)

TP = tapping
bu = bend up
bd = -"-  down
b  = bend

|-12---12---17p12-15-17-15p12----12-19p15-------17-15----------------------|
|-----------------------------15----------17-15-------17-15-20p17----------|
|-----------------------------------------------------------------19-16----|
|-----------------------------------------------------------------------17-|
|--------------------------------------------------------------------------|
|--------------------------------------------------------------------------|

|----------------------------------------------------------15-17----15-17-19-17-19-20-17-19-20-|
|----------------------------------------15-17-19-15-17-19-------19----------------------------|
|-------------------------16-17----16-17-------------------------------------------------------|
|-------16-17----16-17-19-------19-------------------------------------------------------------|
|-17-19-------19-------------------------------------------------------------------------------|
|----------------------------------------------------------------------------------------------|

|-20b22---14bu15--(15)bd14---------------------------------------------------------------|
|--------------------------15bu16--(16)bd15----------------------------------------------|
|-------------------------------------------14bu15--(15)bd14---11h12p11h12p11-7-9-2bu(4)-|
|----------------------------------------------------------------------------------------|
|----------------------------------------------------------------------------------------|
|----------------------------------------------------------------------------------------|

|-------------------------------------------------------------------------|
|-------------------------------------------------------------------------|
|-RP(4)-RP(4)-RP(4)-RP(4)-RP(4)-RP(4)-RP(4)bd2-p0----------12-16----12-16-|
|-------------------------------------------------2---0/14-------14-------|
|-------------------------------------------------------------------------|
|-------------------------------------------------------------------------|

|-12h14----12-15-14-12----12----12-20-19---17p14----------------------14h17p14-------|
|-------12-------------15----15------------------15----------------15----------15----|
|---------------------------------------------------14----------14----------------14-|
|------------------------------------------------------16----16----------------------|
|---------------------------------------------------------17-------------------------|
|------------------------------------------------------------------------------------|

|-17h20p17-------------------------------------------------------------------|
|----------19---17p15----15-14-----------------------------------------------|
|---------------------16-------15---17p14h16----14---------------------------|
|--------------------------------------------17----17-16-14------------------|
|-----------------------------------------------------------17-16-14---------|
|--------------------------------------------------------------------17-16-0-|

  TP     TP     TP     TP     TP     TP     TP     TP
|---------------------------------------------------------|
|---------------------------------------------------------|
|-12p5h9-12p5h9-12p5h9-17p5h9-17p5h9-17p5h9-21p5h9-21p5h9-|
|---------------------------------------------------------|
|---------------------------------------------------------|
|---------------------------------------------------------|

  TP     TP     TP     TP     TP     TP     TP     TP
|---------------------------------------------------------|
|-10p3h7-10p3h7-10p3h7-15p3h7-15p3h7-15p3h7-22p3h7-22p3h7-|
|---------------------------------------------------------|
|---------------------------------------------------------|
|---------------------------------------------------------|
|---------------------------------------------------------|

|--------------------------------------------------12-15-20-19-|
|-----------------------------------12-15----12-15-------------|
|--------------------12-14----12-14-------14-------------------|
|-/14----12----12-14-------14----------------------------------|
|-----12----14-------------------------------------------------|
|--------------------------------------------------------------|

|-19-20p17----19p17----20p17----19p17----20p17----22-------------------19-------|
|----------17-------17-------17-------17-------17----19p17----17----------------|
|----------------------------------------------------------19----19-18----18-16-|
|-------------------------------------------------------------------------------|
|-------------------------------------------------------------------------------|
|-------------------------------------------------------------------------------|

|-------------------------------------------------15-15-15-15-17-17-17-17-19-19-19-|
|-------------16-16-16-16-17-17-17-17-19-19-19-19----------------------------------|
|-16-16-16-16----------------------------------------------------------------------|
|----------------------------------------------------------------------------------|
|----------------------------------------------------------------------------------|
|----------------------------------------------------------------------------------|
  development and support by
dmitry ivanov