rock
 
|tablatures   |lyrics   |discussion forums   |more tabs @ XGuitar.com

Manowar tabs

My Spirit Lives On guitar tab

Manowar: My Spirit Lives on (Louder than Hell)
Transcribed by HeXa(Heikki.Mustonen@kymp.net)

Standard Tuning


|----------------------------------------------------------------------------|
|----------------------------------------------------------------------------|
|----------------------------------------------------------------------------|
|----------------------------------------------------------------------------|
|---------------------------------------------------------10-10-10-10-9-9-9-9|
|-0-0-0-0-0-0-0-0-7-7-7-7-6-6-6-6-5-5-5-5-0-0-0-0-0-0-0-0--------------------|

|----------------------------------------------------------------------------|
|----------------------------------------------------------------------------|
|----------------------------------------------------------------------------|
|----------------------------------------------------------------------------|
|-8-8-8-8-----------------------------------------10-10-10-10-9-9-9-9-8-8-8-8|
|---------0-0-0-0-0-0-0-0-7-7-7-7-6-6-6-6-5-5-5-5----------------------------|

|----------------------------------------------------------------------------|
|-------------------------------------8-8-8-8-7-7-7-7-12-10-8--10-8-7--------|
|---------------------9-9-9-9-8-8-8-8----------------------------------------|
|-10-10-10-10-9-9-9-9--------------------------------------------------------|
|----------------------------------------------------------------------------|
|----------------------------------------------------------------------------|

|-0-0-0-0-7-8-0-0-0-0-5-7-0-0-0-0-3-5--3-2---2-------------------------------|
|------------------------------------------5---5-3---------------------------|
|----------------------------------------------------------------------------|
|----------------------------------------------------------------------------|
|----------------------------------------------------------------------------|
|----------------------------------------------------------------------------|

|----------------------------------------------------------------------------|
|-0-0-0-0-7-8-0-0-0-0-5-7-0-0-0-0-3-5--3-1-0-1-0-----------------------------|
|------------------------------------------------2---------------------------|
|----------------------------------------------------------------------------|
|----------------------------------------------------------------------------|
|----------------------------------------------------------------------------|

|----------------------------------------------------------------------------|
|---------3-5---------1-3---------0-1----------------------------------------|
|-2-2-2-2-----2-2-2-2-----2-2-2-2------4-2---2------5-4---4--------------4-5-|
|------------------------------------------5---5-4------7---7-5----4-5-7-----|
|----------------------------------------------------------------7-----------|
|----------------------------------------------------------------------------|

|----------5-----5-7----5-7-8-7-8-10------------------------12-14-15---------|
|---5-7-8----7-8-----8-----------------------------12-13-15----------12-13-15|
|-7---------------------------------------11-12-14---------------------------|
|--------------------------------------14------------------------------------|
|----------------------------------------------------------------------------|
|----------------------------------------------------------------------------|

|-------------------------------19-17-19-20-19-20-22-20-22-22(24)------------|
|-13-15-17--15-17-19--17-19-20-----------------------------------------------|
|----------------------------------------------------------------------------|
|----------------------------------------------------------------------------|
|----------------------------------------------------------------------------|
|----------------------------------------------------------------------------|

|-------------------12-15-12----19-15-----15-14-12----12---------------------|
|----------------12----------15-------17-----------15----15-13-15-13-12-13-12|
|-------------12-------------------------------------------------------------|
|----------14----------------------------------------------------------------|
|-------14-------------------------------------------------------------------|
|-12-15----------------------------------------------------------------------|

This is where it starts to be a bit complicated...



Here is the cool arpeggio-part which is in the end of the song.
Play each Arpeggio-bar 4 times


 D                  F#m                 Em                  C
|22-17----------17-|-21-17----------17-|-19-15----------15-|-20-15---------15|
|------19----19----|-------19----19----|-------17----17----|-------17----17--|
|---------19-------|----------18-------|----------16-------|----------17-----|
|------------------|-------------------|-------------------|-----------------|
|------------------|-------------------|-------------------|-----------------|
|------------------|-------------------|-------------------|-----------------|

 G                   Bm                 Ddim                 C
|15-10----------10-|-14-10----------10-|-13-10----------10-|-12-8-------8----|
|------12----12----|-------12----12----|-------12----12----|------8---8------|
|---------12-------|----------11-------|----------13-------|--------9--------|
|------------------|-------------------|-------------------|-----------------|
|------------------|-------------------|-------------------|-----------------|
|------------------|-------------------|-------------------|-----------------|

 Cm                                            G          
|-11-8-------8|-10-8-7-8-7----7---------------|-7-3-------3-|----------------|
|------8---8--|------------10---10-8-10-8-7---|-----3---3---|----------------|
|--------8----|-----------------------------9-|-------4-----|----------------|
|-------------|-------------------------------|-------------|----------------|
|-------------|-------------------------------|-------------|----------------|
|only-twice---|-------------------------------|play-4-times-|----------------|


|-5-0-------0-6-1-------1-7-2-------2-8-3-------3-|-9-4-------4-10-5-------5-|
|-----1---1-------2---2-------3---3-------4---4---|-----5---5--------6---6---|
|-------2-----------3-----------4-----------5-----|-------6------------7-----|
|-------------------------------------------------|--------------------------|
|-------------------------------------------------|--------------------------|
|3x-----------------------------------------------|--------------------------|

|-11-6-------6-12-7-------7-13-8--------8-14-9----------9--//////------------|
|------7---7--------8---8--------9----9--------10----10----------------------|
|--------8------------9------------10-------------11-------------------------|
|----------------------------------------------------------------------------|
|---------------------------------------------------------fret-the-strings...|
|----------------------------------------------------------------------------|

After that use some Whammy-bar-work. 
  development and support by
dmitry ivanov