rock
 
|tablatures   |lyrics   |discussion forums   |more tabs @ XGuitar.com

Manowar tabs

Master Of The Wind Live Version guitar tab

Manowar: Master of the Wind(The Triumph of Steel)
Transcribed by HeXa(Heikki.Mustonen@kymp.net)

Comment: This is Hell on Stage-version

Standard Tuning

12-string
INTRO
|---------------------------------3-2------------2-3-2---|-2-----------------|
|-------------------------------------5----------------5-|-3strum..----------|
|----------0------0-------------0-------------0----------|-2-----------------|
|-2------4------2----5-4-2----2---------2---2------------|-0-----------------|
|------2------2------------------------------------------|-------------------|
|---------------------------0-------------0--------------|-------------------|
                                                         
|------------------0------0-----------------7--------5--7--3------3-5-3---3--|
|-3-/5--/8-\7------0---------0------------5--------5------------7-------7----|
|-2-/4--/7-\6------0--------------------4--------4---------------------------|
|------------------2----2-------5-4------------------------------------------|
|------------------2---------------------------------------------------------|
|---------------0------------------------------------------------------------|

|------------5------3-------2------0---3-2----------2-2------12--7-----------|
|--7-5-----5------5-------5------5---------5-3------3-3-3/5--------7---------|
|--------4------4-------4------4--------------------2-2-2/4----------7-------|
|-------------------------------------------------0--------------------------|
|------------------------------------------------------------N.h........-----|
|----------------------------------------------------------------------------|

|-----15----12---------------------------------------------------------------|
|--------12------------------------------------------------------------------|
|----------------------------------------------------------------------------|
|----------------------------------------------------------------------------|
|----------------------------------------------------------------------------|
|-0--------------------------------------------------------------------------|
  development and support by
dmitry ivanov