rock
 
|tablatures   |lyrics   |discussion forums   |more tabs @ XGuitar.com

Manowar tabs

Kingdom Come guitar tab

Manowar: Kingdom Come solo(Kings of Metal)
Transcribed by HeXa(Heikki.Mustonen@kymp.net)

Standard Tuning

1st fill
|----------------------------------------------------------------------------|
|----------------------------------------------------------------------------|
|-----P.H-P.H-P.H--P.H-------------------------------------------------------|
|-----5--7(8)-7(8)-7(8)-5----------------------------------------------------|
|-3-5------------------------------------------------------------------------|
|----------------------------------------------------------------------------|

2nd fill
|----------------------------------------------------------------------------|
|----------------------------------------------------------------------------|
|----------------------------------------------------------------------------|
|----------------------------------------------------------------------------|
|-0\-------------------------------------------------------------------------|
|----------------------------------------------------------------------------|

The solo
|------------------------------------15-15-15-----15----15----15----------15-|
|-----------------N.H-------------15-----------15----15----15----------------|
|-----------------9(bend-down)-------------------------------------17(19)----|
|-5-5-5-5-5/\/\/-------------------------------------------------------------|
|----------------------------------------------------------------------------|
|----------------------------------------------------------------------------|

|--------------15--------------15----------------------------------15-18(20)-|              
|-18-15-----------18-15-----------18-15----------------------15-18-----------|
|-------17(19)----------17(19)----------17-15----------15-17-----------------|
|---------------------------------------------17-15-17-----------------------|
|----------------------------------------------------------------------------|
|----------------------------------------------------------------------------|

|-15-------------|-----------------------------------------------------8-8---|
|----18-15-------|-----------------------------------------------------8-8---|
|----------17-16-|-2(4)-0--------------------------7---9---9(11)10(12)-------|
|----------------|--------2-------------------7-9----9---9-------------------|
|----------------|---------------------7-9-10--------------------------------|
|----------------|--------------7-9-10---------------------------------------|

|-------8-8------------------------------------------------------------------|
|-------8-8---------10(12)-\\\\----------------------------------------------|
|10(12)-----10(12)-----------------------------------------------------------|
|-----------------------------------2----------------------------------------|
|-----------------------------------2----------------------------------------|
|-----------------------------------0----------------------------------------|

Continues: D E, D D E, D D E, D D E, B C
  development and support by
dmitry ivanov