rock
 
|tablatures   |lyrics   |discussion forums   |more tabs @ XGuitar.com

Manowar tabs

Kingdom Come bass tab

		Kingdom Come (Manowar)
		Transcribed by Vinicius Neves (eneves@sti.com.br)
		ONLY BASS TABS - www.winbr.com/basstabs/index.html

Intro
|-------------------------------------------------------------------------|
|--5-5-5-5-5-5-5--2-2-2-2-2-2-2--------------------------------5-5-5-5-5--|
|--------------------------------2-2-2-2-2-2-2--3-3-3-3-3-3-3-------------|
|-------------------------------------------------------------------------|

Verse and Chorus
|--------------------------------------------------------------------------------|
|--5-5-5-5-5-5-5--5-5-5-5--5-4-2--2-2-2-2-2-2-2----------------------------------|
|------------------------------------------------2-2-2-2-2-2-2--0-2-3-3-3-3-3-3--|
|--------------------------------------------------------------------------------|

|----------------|----------------|
|--5---5---------|--5---5---------|
|--------0-2--3--|--------0-2--3--|
|----------------|----------------|

Solo
|----------------------------------------------------------------------------------|
|--5-5-5-5-5-5-5-5-5-5-5-5-5-5--5-4-2--2-2-2-2-2-2-2-------------------------------|
|----------------------------------------------------2-2-2-2-2-2-2--0-2-3-3-3-3-3--|
|----------------------------------------------------------------------------------|

|--7-----------------------------------------------|
|--5--5-0-2--3-3-2--5-3-3-3-2--3-0-2--3-5-5-5-5-5--|
|--------------------------------------------------|
|--------------------------------------------------|


Song-Structure:
Intro
Verse
Chorus
Verse
Chorus
Verse
Chorus
Solo
Chorus
  development and support by
dmitry ivanov