rock
 
|tablatures   |lyrics   |discussion forums   |more tabs @ XGuitar.com

Manowar tabs

King guitar tab

Manowar: King(Louder than Hell)
Tabbed by HeXa (Heikki.Mustonen@kymp.net)

Standard Tuning

Note: No Piano Intro Included! Some parts may sound odd 'cause I used 
Manowar's Hell on Wheels-version for tabbing this. It was more easier to tab 
the wah-parts.
|----------------------------------------------------------------------------|
|-10--8---7-----6------3-----------------------------------------------------|
|-9---7---7-----5----0-2-----------------------------------------------------|
|-7---5---4-----3----2-0-----------------------------------------------------|
|---0---0---------0--3-------------------------------------------------------|
|----------------------------------------------------------------------------|

Riff 1 4x
|----------------------------------------------------------------------------|
|----------------------------------------------------------------------------|
|----------------------------------------------------------------------------|
|-------------------------------0-0-0-0-0-0-0-0-0-0-0-0-0-0-0-0-0-0-0-0-0-0-0|
|-0-0-0-0-0-0-0-0-0-0-0-0-0-0-0----------------------------------------------|
|----------------------------------------------------------------------------|

Chorus: Play Intro Riff 2x

Riff 2 4x
|----------------------------------------------------------------------------|
|----------------------------------------------------------------------------|
|-------------------------------------------------------------5-5/7----------|
|-----------------5-5/7-----------------5-5/7-0-0-0-0-0-0-0-0-5-5/7----------|
|-0-0-0-0-0-0-0-0-5-5/7-0-0-0-0-0-0-0-0-5-5/7-----------------3-3/5----------|
|-----------------3-3/5-----------------3-3/5--------------------------------|

|----------------------------------------------------------------------------|
|----------------------------------------------------------------------------|
|-----------------5-5/7------------------------------------------------------|
|-0-0-0-0-0-0-0-0-5-5/7------------------------------------------------------|
|-----------------3-3/5------------------------------------------------------|
|----------------------------------------------------------------------------|


Chorus: Play Intro Riff 2x


Solo, Use Wah-pedal(Play Riff 1 3x)
|-------5-5----------------------------------------------------5-------------|
|-------5-5-5------------------------------------------------5---8p5---------|
|--7(9)-----7(9)--5--5-7-------------------5-7(9)-5---5-7(9)---------7(9)br5-|
|------------------------5-7-----7-5---5-7----------7-----------------------7|
|------------------------------------7---------------------------------------|
|----------------------------------------------------------------------------|

|-5(8)trill-5(7)trill-3(5)trill-2(3)trill--2-3-2-----------------------------|
|------------------------------------------------5-3-2-----------------------|
|------------------------------------------------------4-2-------------------|
|----------------------------------------------------------5-4-2-4-2---------|
|--------------------------------------------------------------------5-4-2---|
|----------------------------------------------------------------------------|

|----------------------------------------------------------------------------|
|------14(15)br-14(15)br-14(15)br--------------------------------------------|
|---------------------------------12-----------------------------------------|
|----------------------------------------------------------------------------|
|-0\-------------------------------------------------------------------------|
|----------------------------------------------------------------------------|

|-----9-----10-----12-----15--15(17)-----------10-10---------10-10-----------|
|----------------------------------------------10-10---------10-10-----------|
|-----6-----7------9------12------------12(14)--------12(14)-------12(14)----|
|----------------------------------------------------------------------------|
|-0-0---0-0----0-0----0-0----------------------------------------------------|
|----------------------------------------------------------------------------|

|-10-10--------10-10--------10-10--------10-10-------------------------------|
|-10-10--------10-10--------10-10--------10-10-------------------------------|
|-------12(14)-------12(14)-------12(14)--------12(14)br-10----10h12p10h12p10|
|-----------------------------------------------------------12---------------|
|----------------------------------------------------------------------------|
|----------------------------------------------------------------------------|

|----------------------------------------------------------------------------|
|-10-12-10-------------------------------------------------------------------|
|----------12-10-9--------------------12-10-9--------------------------------|
|------------------12-10-9----9-10-12---------12-10-9------------------------|
|--------------------------12--------------------------0\--------------------|
|----------------------------------------------------------------------------|

|----------------------------------------------------------------------------|
|-5--------8--------------8(10)-10(11)-11(13)-13(15)-15(17)------------------|
|-5---7(9)bendup--7(9)-5-----------------------------------------------------|
|----------------------------------------------------------------------------|
|----------------------------------------------------------------------------|
|----------------------------------------------------------------------------|
                                                             
Dunno for sure about this part...But it sounds ok.            T     T
|-------------------------------------------------T-----T-----8p7p5-8p7p5----|
|-------------------------------------T-----T-----8p6p5-8p6p5----------------|
|-------------------------T-----T-----9p7p5-9p7p5----------------------------|
|-------------T-----T-----9p7p5-9p7p5----------------------------------------|
|-T-----T-----9p7p5-9p7p5----------------------------------------------------|
|-8p7p5-8p7p5----------------------------------------------------------------|

  T        T
|-22p20p17-22p20p17--20-19-17------------------------------------------------|
|-----------------------------20-18-17---------------------------------------|
|--------------------------------------19-17-15----------19-17-15------------|
|-----------------------------------------------19-17-16----------19-17-16---|
|----------------------------------------------------------------------------|
|----------------------------------------------------------------------------|

Then Play this Fill
|----------------------------------------------------------------------------|
|----------------------------------------------------------------------------|
|----------------------------------------------------------------------------|
|----------------------------------------------------------------------------|
|-2--5--7--------------------------------------------------------------------|
|-0--3--5--------------------------------------------------------------------|

Riff 3 two first time play the Same Chords as are in Intro-riff

Then
|----------------------------------------------------------------------------|
|----------13------------15-----------13-----------15------------------------|
|-10----10------12----12-----10----10-----12----12---------------------------|
|----10------------12-----------10-----------12------------------------------|
|----------------------------------------------------------------------------|
|----------------------------------------------------------------------------|

Chorus 2x

Riff 4: Just Play A and D And Let them Ring(Make a pick Scrape at the
                                                    end) (Play 2x)

Chorus: 4x
  development and support by
dmitry ivanov