rock
 
|tablatures   |lyrics   |discussion forums   |more tabs @ XGuitar.com

Manowar tabs

House Of Death bass tab

Tune down

F||------|-------------------|------------------|------------------|
C||------|--5----------------|------------------|------------------|
G||------|--3----------------|------------------|------------------|
D||------|-------------------|------------------|------------------|



------------------|--2----------------|------------------|------------------|
------------------|--0----------------|------------------|------------------|
------------------|-------------------|------------------|------------------|
------------------|-------------------|------------------|------------------|



------------------|--9----------------|------------------|------------------|
------------------|--9----------------|------------------|------------------|
------------------|-------------------|------------------|------------------|
------------------|-------------------|------------------|------------------|



------------------|------|------|---------------------------------|
------------------|------|------|---------------------------------|
------------------|------|------|--7------------------------------|
------------------|------|------|-----0-0-0-0-0-0-0-0-0-0-0-0-0-0-|



---------------------------------|---------------------------------|
---------------------------------|---------------------------------|
--7------------------------------|--7------------------------------|
-----0-0-0-0-0-0-0-0-0-0-0-0-0-0-|-----0-0-0-0-0-0-0-0-0-0-0-0-0-0-|



----------------------------------|---------------------------------|
----------------------------------|---------------------------------|
--3-3-3-3-3-3-3-3-3-3-3-3-3-3-3-3-|--7------------------------------|
----------------------------------|-----0-0-0-0-0-0-0-0-0-0-0-0-0-0-|



---------------------------------|---------------------------------|
---------------------------------|---------------------------------|
--7------------------------------|--7------------------------------|
-----0-0-0-0-0-0-0-0-0-0-0-0-0-0-|-----0-0-0-0-0-0-0-0-0-0-0-0-0-0-|



----------------------------------||-----------------------------------|
----------------------------------||*----------------------------------|
--3-3-3-3-3-3-3-3-3-3-3-3-3-3-3-3-||*----------------------------------|
----------------------------------||---0-0-0-0-0-0-0-0-0-0-0-0-0-0-0-0-|



----------------------------------|----------------------------------|
----------------------------------|----------------------------------|
----------------------------------|--3-3-3-3-3-3-3-3-3-3-3-3-3-3-3-3-|
--0-0-0-0-0-0-0-0-0-0-0-0-0-0-0-0-|----------------------------------|



-----------------------------------||-----------------------------------|
----------------------------------*||*----------------------------------|
--3-3-3-3-3-3-3-3-3-3-3-3-3-3-3-3-*||*----------------------------------|
-----------------------------------||---0-0-0-0-0-0-0-0-0-0-0-0-0-0-0-0-|



----------------------------------|----------------------------------|
----------------------------------|----------------------------------|
----------------------------------|--3-3-3-3-3-3-3-3-3-3-3-3-3-3-3-3-|
--0-0-0-0-0-0-0-0-0-0-0-0-0-0-0-0-|----------------------------------|



------------------0-0-0-0-0-0-0-0--||----------------------------------|
--0-0-0-0-0-0-0-0-----------------*||*---------------------------------|
----------------------------------*||*--7------------------------------|
-----------------------------------||------0-0-0-0-0-0-0-0-0-0-0-0-0-0-|



---------------------------------|---------------------------------|
---------------------------------|---------------------------------|
--7------------------------------|--7------------------------------|
-----0-0-0-0-0-0-0-0-0-0-0-0-0-0-|-----0-0-0-0-0-0-0-0-0-0-0-0-0-0-|



-----------------------------------||----------------------------------|
----------------------------------*||----------------------------------|
--3-3-3-3-3-3-3-3-3-3-3-3-3-3-3-3-*||----------------------------------|
-----------------------------------||--0-0-0-0-0-0-0-0-0-0-0-0-0-0-0-0-|



----------------------------------||-----------------------------------|
----------------------------------||*----------------------------------|
----------------------------------||*----------------------------------|
--0-0-0-0-0-0-0-0-0-0-0-0-0-0-0-0-||---0-0-0-0-0-0-0-0-0-0-0-0-0-0-0-0-|



----------------------------------|----------------------------------|
----------------------------------|----------------------------------|
----------------------------------|--3-3-3-3-3-3-3-3-3-3-3-3-3-3-3-3-|
--0-0-0-0-0-0-0-0-0-0-0-0-0-0-0-0-|----------------------------------|



-----------------------------------||-----------------------------------|
----------------------------------*||*----------------------------------|
--3-3-3-3-3-3-3-3-3-3-3-3-3-3-3-3-*||*----------------------------------|
-----------------------------------||---0-0-0-0-0-0-0-0-0-0-0-0-0-0-0-0-|



----------------------------------|----------------------------------|
----------------------------------|----------------------------------|
----------------------------------|--3-3-3-3-3-3-3-3-3-3-3-3-3-3-3-3-|
--0-0-0-0-0-0-0-0-0-0-0-0-0-0-0-0-|----------------------------------|



------------------0-0-0-0-0-0-0-0--||----------------------------------|
--0-0-0-0-0-0-0-0-----------------*||*---------------------------------|
----------------------------------*||*--7------------------------------|
-----------------------------------||------0-0-0-0-0-0-0-0-0-0-0-0-0-0-|



---------------------------------|---------------------------------|
---------------------------------|---------------------------------|
--7------------------------------|--7------------------------------|
-----0-0-0-0-0-0-0-0-0-0-0-0-0-0-|-----0-0-0-0-0-0-0-0-0-0-0-0-0-0-|



-----------------------------------||------|------|------|
----------------------------------*||------|------|------|
--3-3-3-3-3-3-3-3-3-3-3-3-3-3-3-3-*||------|------|------|
-----------------------------------||------|------|------|



---------------------------------|---------------------------------|
---------------------------------|---------------------------------|
--7------------------------------|--7------------------------------|
-----0-0-0-0-0-0-0-0-0-0-0-0-0-0-|-----0-0-0-0-0-0-0-0-0-0-0-0-0-0-|



---------------------------------|----------------------------------|
---------------------------------|----------------------------------|
--7------------------------------|--3-3-3-3-3-3-3-3-3-3-3-3-3-3-3-3-|
-----0-0-0-0-0-0-0-0-0-0-0-0-0-0-|----------------------------------|



---------------------------------|---------------------------------|
---------------------------------|---------------------------------|
--7------------------------------|--7------------------------------|
-----0-0-0-0-0-0-0-0-0-0-0-0-0-0-|-----0-0-0-0-0-0-0-0-0-0-0-0-0-0-|



---------------------------------|----------------------------------|
---------------------------------|----------------------------------|
--7------------------------------|--3-3-3-3-3-3-3-3-3-3-3-3-3-3-3-3-|
-----0-0-0-0-0-0-0-0-0-0-0-0-0-0-|----------------------------------|



---------------------------------|---------------------------------|
---------------------------------|---------------------------------|
--7------------------------------|--7------------------------------|
-----0-0-0-0-0-0-0-0-0-0-0-0-0-0-|-----0-0-0-0-0-0-0-0-0-0-0-0-0-0-|



---------------------------------|----------------------------------|
---------------------------------|----------------------------------|
--7------------------------------|--3-3-3-3-3-3-3-3-3-3-3-3-3-3-3-3-|
-----0-0-0-0-0-0-0-0-0-0-0-0-0-0-|----------------------------------|



---------------------------------|---------------------------------|
---------------------------------|---------------------------------|
--7------------------------------|--7------------------------------|
-----0-0-0-0-0-0-0-0-0-0-0-0-0-0-|-----0-0-0-0-0-0-0-0-0-0-0-0-0-0-|



---------------------------------|----------------------------------|
---------------------------------|----------------------------------|
--7------------------------------|--3-3-3-3-3-3-3-3-3-3-3-3-3-3-3-3-|
-----0-0-0-0-0-0-0-0-0-0-0-0-0-0-|----------------------------------|



|----------------------------------|---------------------------------|
|*---------------------------------|---------------------------------|
|*--7------------------------------|--7------------------------------|
|------0-0-0-0-0-0-0-0-0-0-0-0-0-0-|-----0-0-0-0-0-0-0-0-0-0-0-0-0-0-|


                                                                    11x
---------------------------------|-----------------------------------||------||
---------------------------------|----------------------------------*||------||
--7------------------------------|--3-3-3-3-3-3-3-3-3-3-3-3-3-3-3-3-*||------||
-----0-0-0-0-0-0-0-0-0-0-0-0-0-0-|-----------------------------------||------||
  development and support by
dmitry ivanov