rock
 
|tablatures   |lyrics   |discussion forums   |more tabs @ XGuitar.com

Manowar tabs

Hatred guitar tab

Manowar: Hatred(Into Glory Ride)
Transcribed by HeXa(Heikki.Mustonen@kymp.net)

Standard Tuning

Note: "\" doesn't mean always just slide...It mostly means bend down with
     trem
There is a bass or a guitar doing all the crazy-delay stuff. so Use Delay..

INTRO
|----------Bass----------------------------------------------20(22)----------|
|-------------------------------------------12\-12\-12\-12\------------------|
|---9-9---/19/\/\/------6-6-----5-------9------------------------------------|
|---9-9-----------------6-6-----6-------9------------------------------------|
|---7-7\\---------------4-4-----4-------7------------------------------------|
|-0-------------------0--------0------0--------------------------------------|

|----------------------------------------------------------------------------|
|----------------------------------------------------------------------------|
|---6--13\---\/\/\/\/--5-----------------------------------------------------|
|---6------------------6-----------------------------------------------------|
|---4------------------4-----------------------------------------------------|
|-0--------------------------------------------------------------------------|

Riff 1 4x
|----------------------------------------------------------------------------|
|----------------------------------------------------------------------------|
|---9-9--19\/\/\/-----6-6-----5----------------------------------------------|
|---9-9---------------6-6-----6----------------------------------------------|
|---7-7---------------4-4-----4----------------------------------------------|
|-0----------------0--------0------------------------------------------------|


Riff 2 
|-4x-------------------------|1,2,3-time|4th-time----------------------------|
|----------------------------|ending----|------------------------------------|
|----------------------------|----------|------------------------------------|
|-----5----------------------|-3-3-3--5-|-5----------------------------------|
|---5---4-3----------4-3-----|-3-3-3--5-|-5----------------------------------|
|-3---------6-3--3-6-----6-3-|-1-1-1--3-|-3----------------------------------|

|----------------------------------------------------------------------------|
|----------------------------------------------------------------------------|
|----------------------------------------------------------------------------|
|-8--8-8---3--3-3-2----------------------------------------------------------|
|-8--8-8---3--3-3-2----------------------------------------------------------|
|-6--6-6---1--1-1-0----------------------------------------------------------|

|----------------------------------------------------------------------------|
|----------------------------------------------------------------------------|
|----------------------------------------------------------------------------|
|-----5------------------------3---------------------------------------------|
|---5---4-3----------4-3-------3---------------------------------------------|
|-3---------6-3--3-6-----6-----1---------------------------------------------|

Ok..Here are now 2 versions of the end of the bridge-riff...The other one
is from the live album and the other is the real...The Live sounds really
better to me so I like to play it like that...the normal version might not
be very correct 'cause once again I couldn't regonize the guitars...

3x
Bridge riff           Live Version              Normal version
|--------------------|-------------------------|-----------------------------|
|-5-5-/7/8--3-3-/5/7-|-----------------------8-|-----------------------------|
|--------------------|-4-5-7-5-4-----4-5-7-9---|-4-4-5-7-5-4-----4-5-4-------|
|--------------------|-----------7-7-----------|-------------7-7-------7-----|
|--------------------|-------------------------|-----------------------------|
|--------------------|-------------------------|-----------------------------|

Between screams:
|----------------------------------------------------------------------------|
|----------------------------------------------------------------------------|
|----------------------------------------------------------------------------|
|-2--------------------------------------------------------------------------|
|-2--------------------------------------------------------------------------|
|-0-----\---//\/ ------------------------------------------------------------|




Solo(Lots of EffectS!, The Backround is simply just riff 1)
|---------------13(15)\------------------------------------------------------|
|---------------------------12--------12--------12--------12--------12-------|
|------------------------------14(16)----14(16)----14(16)----14(16)----14(16)|
|----------------------------------------------------------------------------|
|----------------------------------------------------------------------------|
|-0\-------------------------------------------------------------------------|

|--------------------------------|---------15-12----15-12----15-12----15-12--|
|-12h13p12h13p12h13p12----15(17)-|---------------15-------15-------15-------15
|--------------------------------|-2(4)--------------------------------------|
|--------------------------------|-------------------------------------------|
|--------------------------------|-------------------------------------------|
|--------------------------------|-------------------------------------------|

|----------------------------------------------------------------------------|
|----------------------------------------------------------------------------|
|-14(16)-br-14(16)-----------------------------------------------------------|
|----------------------------------------------------------------------------|
|----------------------------------------------------------------------------|
|------------------------0/\/\/\/\/\/\/(Tremolo-shaking...)------------------|

|-17(19)--12-15-12~-13(15)-10-13-10-13(15)-br-13(15)/\//\/\------------------|
|----------------------------------------------------------------------------|
|----------------------------------------------------------------------------|
|----------------------------------------------------------------------------|
|----------------------------------------------------------------------------|
|----------------------------------------------------------------------------|

|-20-19-17----20-19-17----20-19-17----20(22)-17-20-17------------------------|
|----------20----------20----------20-----------------20(22)-----------------|
|----------------------------------------------------------------------------|
|----------------------------------------------------------------------------|
|----------------------------------------------------------------------------|
|----------------------------------------------------------------------------|

|----------------------------------------------------------------------------|
|----------------------------------------------------------------------------|
|-12\---/\/\/\/\------13\--/\/\/\/----------2(4)-br-/\/\/\/------------------|
|----------------------------------------------------------------------------|
|----------------------------------------------------------------------------|
|----------------------------------------------------------------------------|

|----------------------------------------------------------------------------|
|-17p12h17p12h17-17(19)------------------------------------------------------|
|----------------------------------------------------------------------------|
|----------------------------------------------------------------------------|
|----------------------------------------------------------------------------|
|----------------------------------------------------------------------------|

Play Bridge Riff 3x

Play Riff 1 3x 

Play Riff 2 

No bass outro sorry...It's quite complicated too...
  development and support by
dmitry ivanov