rock
 
|tablatures   |lyrics   |discussion forums   |more tabs @ XGuitar.com

Manowar tabs

Hail To England guitar tab

By Spyros Soldatos lordovol@mailbox.gr

Verse:
                                                                 
E||------------------------------|------------------------------|
B||------------------------------|------------------------------|
G||------------------------------|------------------------------|
D||--9-------------9-------------|--9-------------9-------------|
A||--7-------------7-------------|--7-------------7-------------|
E||--0----0--0--0--0----0--0--0--|--0----0--0--0--0----0--0--0--|

                                                                             
--------------------------------------|--------------------------------------|
--------------------------------------|--------------------------------------|
--------------------------------------|--------------------------------------|
--------------------------------------|--------------------------------------|
--3--3--3--3--2--0--------------------|--0--0--0--0--0--0--2--2--2--2--2--2--|
--------------------3--3--3--3--3--3--|--------------------------------------|

Bridge:
                                                            
--------------------|-------------------|--------------------|
--------------------|-------------------|--------------------|
--2------------7----|--9----------------|--2------------7----|
--2------------7----|--9----------------|--2------------7----|
--0------------5----|--7----------------|--0------------5----|
--------------------|-------------------|--------------------|


                                                             
-------------------|--------------------|-------------------|
-------------------|--------------------|-------------------|
--9----------------|--2------------7----|--9----------------|
--9----------------|--2------------7----|--9----------------|
--7----------------|--0------------5----|--7----------------|
-------------------|--------------------|-------------------|

Pre-chorus:                                                             

-------------------|-------------------|--------------------|
-------------------|-------------------|--------------------|
--7----------------|--5----------------|--3--------2--------|
--7----------------|--5----------------|--3--------2--------|
--5----------------|--3----------------|--1--------0--------|
-------------------|-------------------|--------------------|

                                                               
------------------------------|-------------------|-------------------|
------------------------------|-------------------|-------------------|
------------------------------|--7----------------|--5----------------|
--5----5----------------------|--7----------------|--5----------------|
--5----5----------------------|--5----------------|--3----------------|
--3----3----3--3--3--3--3--3--|-------------------|-------------------|


                                                    
--------------------|------------------------------|
--------------------|------------------------------|
--3--------2--------|------------------------------|
--3--------2--------|--5----5----------------------|
--1--------0--------|--5----5----------------------|
--------------------|--3----3----3--3--3--3--3--3--|

Chorus:
                                                                
-----------------------------|---------------------------------|
-----------------------------|---------------------------------|
-----------------------------|--7------------7--------7--------|
--3-------------2------------|--7------------7--------7--------|
--3-------------2------------|--5------5--5--5--5--5--5--5--5--|
--1----1--1--1--0------0--0--|---------------------------------|


                                                                
-----------------------------|---------------------------------|
-----------------------------|---------------------------------|
-----------------------------|--7------------7--------7--------|
--3-------------2------------|--7------------7--------7--------|
--3-------------2------------|--5------5--5--5--5--5--5--5--5--|
--1----1--1--1--0------0--0--|---------------------------------|


                                                                
-----------------------------|---------------------------------|
-----------------------------|---------------------------------|
-----------------------------|--7------------7--------7--------|
--3-------------2------------|--7------------7--------7--------|
--3-------------2------------|--5------5--5--5--5--5--5--5--5--|
--1----1--1--1--0------0--0--|---------------------------------|


                                                   
-----------------------------|--------------------|
-----------------------------|--------------------|
-----------------------------|--7-----------------|
--3-------------2------------|--7------------2\---|
--3-------------2------------|--5------------2\---|
--1----1--1--1--0------0--0--|---------------0\---|

Solo:

                                                                 
---------------------|-------------------|--8------10h12-7------7--|
---------------------|-------------------|-------------------------|
---------------------|--4~---------------|-------------------------|
--2~-------4~---5~---|-------------------|-------------------------|
---------------------|-------------------|-------------------------|
---------------------|-------------------|-------------------------|


                                                                              
--8p-7-----------------------------|---------------------|-------------------|
--------10p-8h-10p-8p-7h-8p-7------|---------------------|-------------------|
-----------------------------------|---------------------|--4~---------------|
-----------------------------------|--2~-------4~---5~---|-------------------|
-----------------------------------|---------------------|-------------------|
-----------------------------------|---------------------|-------------------|


                                                           
--8----10h-12--10------7----|--5h-7p-5\-3h-5p-3\-2--------|
----------------------------|-----------------------------|
----------------------------|-----------------------------|
----------------------------|-----------------------------|
----------------------------|-----------------------------|
----------------------------|-----------------------------|


                                              
--12~-------14~---15~---|--19~---------------|
------------------------|--------------------|
------------------------|--------------------|
------------------------|--------------------|
------------------------|--------------------|
------------------------|--------------------|


                                                   
--20--15--------------15--19--15--------------15--|
----------17------17--------------15------15------|
--------------17----------------------16----------|
--------------------------------------------------|
--------------------------------------------------|
--------------------------------------------------|


                                                   
--17--12--------------12--19--14--------------14--|
----------13------13--------------15------15------|
--------------14----------------------16----------|
--------------------------------------------------|
--------------------------------------------------|
--------------------------------------------------|


                                                                          
--15--12------15--12------15--12------15--12------|--15--------19--------|
----------12----------12----------12----------12--|----------------------|
--------------------------------------------------|----------------------|
--------------------------------------------------|----------------------|
--------------------------------------------------|----------------------|
--------------------------------------------------|----------------------|


                                                               
--12----10h-12p-10\-8-----------|--8p-7p-5h-7p-5\-3\-2--------|
-----------------------8--------|-----------------------------|
--------------------------------|-----------------------------|
--------------------------------|-----------------------------|
--------------------------------|-----------------------------|
--------------------------------|-----------------------------|
  development and support by
dmitry ivanov