rock
 
|tablatures   |lyrics   |discussion forums   |more tabs @ XGuitar.com

Manowar tabs

Hail To England bass tab

G||------------------------------|------------------------------|
D||------------------------------|------------------------------|
A||------------------------------|------------------------------|
E||--0----0--0--0--0----0--0--0--|--0----0--0--0--0----0--0--0--|



--------------------------------------|--------------------------------------|
--------------------------------------|--------------------------------------|
--3--3--3--3--2--0--------------------|--0--0--0--0--0--0--2--2--2--2--2--2--|
--------------------3--3--3--3--3--3--|--------------------------------------|



------------------------------|------------------------------|
------------------------------|------------------------------|
------------------------------|------------------------------|
--0----0--0--0--0----0--0--0--|--0----0--0--0--0----0--0--0--|



--------------------------------------|--------------------------------------|
--------------------------------------|--------------------------------------|
--3--3--3--3--2--0--------------------|--0--0--0--0--0--0--2--2--2--2--2--2--|
--------------------3--3--3--3--3--3--|--------------------------------------|



------------------------------|------------------------------|
------------------------------|------------------------------|
------------------------------|------------------------------|
--0----0--0--0--0----0--0--0--|--0----0--0--0--0----0--0--0--|



--------------------------------------|--------------------------------------|
--------------------------------------|--------------------------------------|
--3--3--3--3--2--0--------------------|--0--0--0--0--0--0--2--2--2--2--2--2--|
--------------------3--3--3--3--3--3--|--------------------------------------|



------------------------------|------------------------------|
------------------------------|------------------------------|
------------------------------|------------------------------|
--0----0--0--0--0----0--0--0--|--0----0--0--0--0----0--0--0--|



--------------------------------------|--------------------------------------|
--------------------------------------|--------------------------------------|
--3--3--3--3--2--0--------------------|--0--0--0--0--0--0--2--2--2--2--2--2--|
--------------------3--3--3--3--3--3--|--------------------------------------|



------------------------------|------------------------------|
------------------------------|------------------------------|
------------------------------|------------------------------|
--0----0--0--0--0----0--0--0--|--0----0--0--0--0----0--0--0--|



--------------------------------------|--------------------------------------|
--------------------------------------|--------------------------------------|
--3--3--3--3--2--0--------------------|--0--0--0--0--0--0--2--2--2--2--2--2--|
--------------------3--3--3--3--3--3--|--------------------------------------|



--------------------|-------------------|--------------------|
--------------------|-------------------|--------------------|
--0------------5----|--7----------------|--0------------5----|
--------------------|-------------------|--------------------|



-------------------|--------------------|-------------------|
-------------------|--------------------|-------------------|
--7----------------|--0------------5----|--7----------------|
-------------------|--------------------|-------------------|



-------------------|-------------------|--------------------|
-------------------|-------------------|--------------------|
--5----------------|--3----------------|--1--------0--------|
-------------------|-------------------|--------------------|



------------------------------|-------------------|-------------------|
------------------------------|-------------------|-------------------|
------------------------------|--5----------------|--3----------------|
--3----3----3--3--3--3--3--3--|-------------------|-------------------|



--------------------|------------------------------|
--------------------|------------------------------|
--1--------0--------|------------------------------|
--------------------|--3----3----3--3--3--3--3--3--|



-----------------------------|---------------------------------|
-----------------------------|---------------------------------|
-----------------------------|--5------5--5--5--5--5--5--5--5--|
--1----1--1--1--0------0--0--|---------------------------------|



-----------------------------|---------------------------------|
-----------------------------|---------------------------------|
-----------------------------|--5------5--5--5--5--5--5--5--5--|
--1----1--1--1--0------0--0--|---------------------------------|



-----------------------------|---------------------------------|
-----------------------------|---------------------------------|
-----------------------------|--5------5--5--5--5--5--5--5--5--|
--1----1--1--1--0------0--0--|---------------------------------|



-----------------------------|-------------------|
-----------------------------|-------------------|
-----------------------------|--5----------------|
--1----1--1--1--0------0--0--|-------------------|



------------------------------|------------------------------|
------------------------------|------------------------------|
------------------------------|------------------------------|
--0----0--0--0--0----0--0--0--|--0----0--0--0--0----0--0--0--|



--------------------------------------|--------------------------------------|
--------------------------------------|--------------------------------------|
--3--3--3--3--2--0--------------------|--0--0--0--0--0--0--2--2--2--2--2--2--|
--------------------3--3--3--3--3--3--|--------------------------------------|



------------------------------|------------------------------|
------------------------------|------------------------------|
------------------------------|------------------------------|
--0----0--0--0--0----0--0--0--|--0----0--0--0--0----0--0--0--|



--------------------------------------|--------------------------------------|
--------------------------------------|--------------------------------------|
--3--3--3--3--2--0--------------------|--0--0--0--0--0--0--2--2--2--2--2--2--|
--------------------3--3--3--3--3--3--|--------------------------------------|



------------------------------|------------------------------|
------------------------------|------------------------------|
------------------------------|------------------------------|
--0----0--0--0--0----0--0--0--|--0----0--0--0--0----0--0--0--|



--------------------------------------|--------------------------------------|
--------------------------------------|--------------------------------------|
--3--3--3--3--2--0--------------------|--0--0--0--0--0--0--2--2--2--2--2--2--|
--------------------3--3--3--3--3--3--|--------------------------------------|



------------------------------|------------------------------|
------------------------------|------------------------------|
------------------------------|------------------------------|
--0----0--0--0--0----0--0--0--|--0----0--0--0--0----0--0--0--|



--------------------------------------|--------------------------------------|
--------------------------------------|--------------------------------------|
--3--3--3--3--2--0--------------------|--0--0--0--0--0--0--2--2--2--2--2--2--|
--------------------3--3--3--3--3--3--|--------------------------------------|



--------------------|-------------------|--------------------|
--------------------|-------------------|--------------------|
--0------------5----|--7----------------|--0------------5----|
--------------------|-------------------|--------------------|



-------------------|--------------------|-------------------|
-------------------|--------------------|-------------------|
--7----------------|--0------------5----|--7----------------|
-------------------|--------------------|-------------------|



-------------------|-------------------|--------------------|
-------------------|-------------------|--------------------|
--5----------------|--3----------------|--1--------0--------|
-------------------|-------------------|--------------------|



------------------------------|-------------------|-------------------|
------------------------------|-------------------|-------------------|
------------------------------|--5----------------|--3----------------|
--3----3----3--3--3--3--3--3--|-------------------|-------------------|



--------------------|------------------------------|
--------------------|------------------------------|
--1--------0--------|------------------------------|
--------------------|--3----3----3--3--3--3--3--3--|



-----------------------------|---------------------------------|
-----------------------------|---------------------------------|
-----------------------------|--5------5--5--5--5--5--5--5--5--|
--1----1--1--1--0------0--0--|---------------------------------|



-----------------------------|---------------------------------|
-----------------------------|---------------------------------|
-----------------------------|--5------5--5--5--5--5--5--5--5--|
--1----1--1--1--0------0--0--|---------------------------------|



-----------------------------|---------------------------------|
-----------------------------|---------------------------------|
-----------------------------|--5------5--5--5--5--5--5--5--5--|
--1----1--1--1--0------0--0--|---------------------------------|



-----------------------------|-------------------|
-----------------------------|-------------------|
-----------------------------|--5----------------|
--1----1--1--1--0------0--0--|-------------------|



------------------------------|------------------------------|
------------------------------|------------------------------|
------------------------------|------------------------------|
--0----0--0--0--0----0--0--0--|--0----0--0--0--0----0--0--0--|



--------------------------------------|--------------------------------------|
--------------------------------------|--------------------------------------|
--3--3--3--3--2--0--------------------|--0--0--0--0--0--0--2--2--2--2--2--2--|
--------------------3--3--3--3--3--3--|--------------------------------------|



------------------------------|------------------------------|
------------------------------|------------------------------|
------------------------------|------------------------------|
--0----0--0--0--0----0--0--0--|--0----0--0--0--0----0--0--0--|



--------------------------------------|--------------------------------------|
--------------------------------------|--------------------------------------|
--3--3--3--3--2--0--------------------|--0--0--0--0--0--0--2--2--2--2--2--2--|
--------------------3--3--3--3--3--3--|--------------------------------------|



------------------------------|------------------------------|
------------------------------|------------------------------|
------------------------------|------------------------------|
--0----0--0--0--0----0--0--0--|--0----0--0--0--0----0--0--0--|



--------------------------------------|--------------------------------------|
--------------------------------------|--------------------------------------|
--3--3--3--3--2--0--------------------|--0--0--0--0--0--0--2--2--2--2--2--2--|
--------------------3--3--3--3--3--3--|--------------------------------------|



------------------------------|------------------------------|
------------------------------|------------------------------|
------------------------------|------------------------------|
--0----0--0--0--0----0--0--0--|--0----0--0--0--0----0--0--0--|



--------------------------------------|--------------------------------------|
--------------------------------------|--------------------------------------|
--3--3--3--3--2--0--------------------|--0--0--0--0--0--0--2--2--2--2--2--2--|
--------------------3--3--3--3--3--3--|--------------------------------------|



--------------------|-------------------|--------------------|
--------------------|-------------------|--------------------|
--0------------5----|--7----------------|--0------------5----|
--------------------|-------------------|--------------------|



-------------------|--------------------|-------------------|
-------------------|--------------------|-------------------|
--7----------------|--0------------5----|--7----------------|
-------------------|--------------------|-------------------|



----------------------------|----------------------------|
----------------------------|----------------------------|
--5------------4------------|--3------------2------------|
----------------------------|----------------------------|



----------------------------|----------------------------------|
----------------------------|----------------------------------|
--1------------0------------|----------------------------------|
----------------------------|--3------3------3--3--3--3--3--3--|



----------------------------|----------------------------|
----------------------------|----------------------------|
--5------------4------------|--3------------2------------|
----------------------------|----------------------------|



----------------------------|----------------------------------|
----------------------------|----------------------------------|
--1------------0------------|----------------------------------|
----------------------------|--3------3------3--3--3--3--3--3--|



---------------------------------|-----------------------------------|
---------------------------------|-----------------------------------|
---------------------------------|--5--------5--5--5--5--5--5--5--5--|
--1------1--1--1--0--------0--0--|-----------------------------------|



---------------------------------|-----------------------------------|
---------------------------------|-----------------------------------|
---------------------------------|--5--------5--5--5--5--5--5--5--5--|
--1------1--1--1--0--------0--0--|-----------------------------------|



---------------------------------|-----------------------------------|
---------------------------------|-----------------------------------|
---------------------------------|--5--------5--5--5--5--5--5--5--5--|
--1------1--1--1--0--------0--0--|-----------------------------------|



---------------------------|---------------------------|
---------------------------|---------------------------|
---------------------------|--3------------------------|
--1------------------------|---------------------------|



----------------------------------|----------------------------------|
--0-0-0-0-0-0-0-0-0-0-0-0-0-0-0-0-|--0-0-0-0-0-0-0-0-0-0-0-0-0-0-0-0-|
----------------------------------|----------------------------------|
----------------------------------|----------------------------------|



----------------------------------|------------------------|------------------||
--0-0-0-0-0-0-0-0-0-0-0-0-0-0-0-0-|------------------------|------------------||
----------------------------------|------0----5------------|------------------||
----------------------------------|------------------------|------------------||
  development and support by
dmitry ivanov