rock
 
|tablatures   |lyrics   |discussion forums   |more tabs @ XGuitar.com

Manowar tabs

Hail And Kill -solo guitar tab

				      ManOwaR

			            Hail & Kill
			   from the album Kings of metal.
			    tabs made by Kimmo Kujansuu.

				      (Solo)
TP=Tapping
b=bend
bu=bend up
bd=bend down
rp=repick
/=slide up           |----------- LEFT HAND -----------------|
H1S=Harmonic slide (put your finger "gently" on the 1:st fret.
                    Then slide up to 12:th fret.)
                     |----------- RIGHT HAND ----------------|
                            (Pick quikly up and down)

                     |----------- LEFT HAND -----------------|
H2S=Harmonic slide (put your finger "gently" on the 12:th fret.
                    Then slide down to 1:st fret.)
                     |----------- RIGHT HAND ----------------|
                            (Pick quikly up and down)

E |-----------------------------------------------------------|
H |-15b(17)---------------------------------------------------|
G |-14b(16)---12-14----12--14bu(15)-bd--p12----14b(16)-rp(16)-|
D |-----------------14----------------------14----------------|
A |-----------------------------------------------------------|
E |-----------------------------------------------------------|

E |--------------------------------------------------------------------|
H |--------------------------------------------------------------------|
G |-14---19-14-14-16-14-14-19-14-14-16-14-14-19-14-14-16-14-14-16b(19)-|
D |--------------------------------------------------------------------|
A |--------------------------------------------------------------------|
E |--------------------------------------------------------------------|

E |---------------------------------------------------15-15-15-17-17-17-|
H |---------------------------------15-15-15-17-17-17-------------------|
G |-1/11-12-12-12-14-14-14-16-16-16-------------------------------------|
D |---------------------------------------------------------------------|
A |---------------------------------------------------------------------|
E |---------------------------------------------------------------------|

E |-19b(20)--20b(21)--19b(20)-17--15h17p15-------------------------|
H |----------------------------------------17-15-------------------|
G |----------------------------------------------16-14-------------|
D |-----------------------------------------------------7bu(9)--bd-|
A |----------------------------------------------------------------|
E |----------------------------------------------------------------|

E |-10bu(11)--bd--12h15p12------------------------------------------|
H |-10bu(11)--bd-----------15b(17)-12h15p12-----------------15b(17)-|
G |-----------------------------------------14--12h14p12-12---------|
D |-----------------------------------------------------------------|
A |-----------------------------------------------------------------|
E |-----------------------------------------------------------------|

E |---------------------------------------------------------------|
H |-12-13-12-15-12-13-12-12-15-12-12------------------------------|
G |-------------------------------------------------H2S-----------|
D |---------------------------------------------------------------|
A |---------------------------------------------------------------|
E |----------------------------------H1S--------------------------|

E |-----------------------------------------------------------------|
H |-TP-----TP-----TP-----TP-----TP-------TP-------TP-------TP-------|
G |-12p0h2-12p0h2-12p0h2-12p0h2-12/-p0h2-12/-p0h2-12/-p0h2-12/-p0h2-|
D |-----------------------------------------------------------------|
A |-----------------------------------------------------------------|
E |-----------------------------------------------------------------|

E |-TP------TP------TP------TP------TP------TP------TP------TP------|
H |-12-8-10-12-8-10-12-8-10-12-8-10-12-8-10-13-8-10-13-8-10-13-8-10-|
G |-----------------------------------------------------------------|
D |-----------------------------------------------------------------|
A |-----------------------------------------------------------------|
E |-----------------------------------------------------------------|

E |-TP------TP------TP-------------19---17-15-17----15---------------|
H |-12-8-10-12-8-10-12-8-10----------------------17------17-15-------|
G |-------------------------0-\--------------------------------16-14-|
D |----------------------------\-------------------------------------|
A |-----------------------------\------------------------------------|
E |------------------------------|-----------------------------------|

E |----------12------12-12-12-12-12-12-----17b(18)-17-15--------|
H |----------15b(17)-rp-rp-rp-rp-rp-rp-------------------17-----|
G |-------------------------------------------------------------|
D |-17-14-17----------------------------------------------------|
A |-------------------------------------------------------------|
E |-------------------------------------------------------------|

E |---------------------------------------------------------|
H |---------------------------------------------------------|
G |---------------------------------------------------------|
D |-7b(9)-7b(9)-7b(9)-7b(9)-7b(9)-7b(9)p5---7b(9)-7b(9)p5---|
A |--------------------------------------h7--------------h7-|
E |---------------------------------------------------------|

E |-----------------------------------------------------------------|
H |-----------------------------------------------------------------|
G |-----------------------------------------------------------------|
D |-7b(9)-7b(9)p5---7b(9)-7b(9)p5---7b(9)-7b(9)p5---7b(9)-7b(9)p5---|
A |--------------h7--------------h7--------------h7--------------h7-|
E |-----------------------------------------------------------------|

E |-------------------15-14-12-------------------------------------------|
H |----------------------------15-13-12----------------------------------|
G |---8---------------------------------14-12----------------------------|
D |-9---10-9-8-9------------------------------15-14-12-------------------|
A |--------------10------------------------------------15-14-12----------|
E |-------------------------------------------------------------15-12-0\-|
									\
									 \
									  |
  development and support by
dmitry ivanov