rock
 
|tablatures   |lyrics   |discussion forums   |more tabs @ XGuitar.com

Manowar tabs

Hail And Kill guitar tab

Manowar: Hail and Kill(Kings of Metal)
Tabbed by HeXa

Standard Tuning

Intro
|-15-14-15----15-14-15--15-14-15-19-15-14------------------------------------|
|----------12-----------------------------15---------------------------------|
|----------------------------------------------------------------------------|
|-2---------------------2----------------------------------------------------|
|-2---------------------2----------------------------------------------------|
|-0---------------------0----------------------------------------------------|

|-15-14-15----15-14-15--15-14-15-19-15-14------------------------------------|
|----------12-----------------------------15---------------------------------|
|-5---------------------5-5-------5------------------------------------------|
|-5---------------------5-5-------5------------------------------------------|
|-3---------------------3-3-------3------------------------------------------|
|----------------------------------------------------------------------------|
Repeat Pattern 1

|----------------------------------------------------------------------------|
|----------------------------------------------------------------------------|
|-9--7--5--------------------------------------------------------------------|
|-9--7--5------2-------------------------------------------------------------|
|-7--5--3------2-------------------------------------------------------------|
|--------------0-------------------------------------------------------------|

Play with Acoustic:

E - D - G - F# - E - F# - C

And then the same with Distortion
Chorus
|----------------------------------------------------------------------------|
|----------------------------------------------------------------------------|
|-9-9-7-9-7--5-7-5-----------------------------------------------------------|
|-9-9-7-9-7--5-7-5--2--------------------------------------------------------|
|-7-7-5-7-5--3-5-3--2--------------------------------------------------------|
|-------------------0--------------------------------------------------------|

solo
|-19\------------------------------------------------------------------------|
|--------12-----12-----------------------------------------------------------|
|--------14(16)-14(16)-12-14-14(16)br-14p12----------------------------------|
|-------------------------------------------14-12----------------------------|
|-------------------------------------------------14-13-12-------------------|
|----------------------------------------------------------------------------|

|-7-5-5-8-5-5-10-5-5-8-5-5-7-5-5---------------------------------12-12-14-14-|
|----------------------------------------------12-12-13-13-15-15-------------|
|----------------------------------12-12-14-14-------------------------------|
|----------------------------------------------------------------------------|
|----------------------------------------------------------------------------|
|----------------------------------------------------------------------------|

|-15-15-17(19)-17(19--15h17p15----15-----------------------------------------|
|------------------------------17-----15h17p15-------------------------------|
|----------------------------------------------16--14h16p14------------------|
|-----------------------------------------------------------17-16-14---------|
|----------------------------------------------------------------------------|
|----------------------------------------------------------------------------|

|-------0(bend-all-strings-up)---15p-12h15p12----12--------------------------|
|-------0-------------------------------------15----15-12--------------------|
|-2(4)--0-------------------------------------------------15-14-12-14-15-----|
|----------------------------------------------------------------------------|
|----------------------------------------------------------------------------|
|----------------------------------------------------------------------------|

|----------------------------------------------------------------------------|
|-12h15---12-13p12-15p12-13p12-15p12-13p12-15p12-13p12-15p12-----------------|
|----------------------------------------------------------------------------|
|----------------------------------------------------------------------------|
|----------------------------------------------------------------------------|
|----------------------------------------------------------------------------|

                                      2x
|(Try-to-figure-here-something-....)-|---------------------------------------|
|------------------------------------|-(pull-finger-or-pick-off-the-fretboard)
|------------------------------------|----T---------T---------T--------------|
|------------------------------------|----16p14p12--16p14p12--16p14p12-/-\---|
|------------------------------------|---------------------------------------|
|------------------------------------|---------------------------------------|

|-------------------------------------|--------------------------------------|
|-T--------T--------T--------T--------|--------------------------------------|
|-17p14p12-16p14p12-17p14p12-16p14p12-|--0\(bend-down)-----------------------|
|-------------------------------------|--------------------------------------|
|-------------------------------------|--------------------------------------|
|-------------------------------------|--------------------------------------|

|--17(19)-17--15-17-15-----15-----------------------------------12--------12-|
|-----------------------17----15-17-15-------------------15(17)----15(17)----|
|--------------------------------------16-14-12-14-12------------------------|
|-----------------------------------------------------14---------------------|
|----------------------------------------------------------------------------|
|----------------------------------------------------------------------------|

|--------12--------12---17(19)--17-15----------------------------------------|
|-15(17)----15(17)--------------------17-------------------------------------|
|-------------------------------------------2(4)-2(4)-2(4)-2(4)-2(4)---------|
|----------------------------------------------------------------------------|
|----------------------------------------------------------------------------|
|----------------------------------------------------------------------------|

|----------------------------------------------------------------------------|
|----------------------------------------0-3-1-0-----------------------------|
|-0h2p0h2p0----0h2p0h2p0----0h2p0h2p0------------2-0-------------------------|
|-----------2------------2------------2--------------4-2---------------------|
|----------------------------------------------------------------------------|
|----------------------------------------------------------------------------|

|-15-14-12-------------------------------------------------------------------|
|----------15-13-12----------------------------------------------------------|
|-------------------14-12(14)br----------------------------------------------|
|-------------------------------14-12----------------------------------------|
|-------------------------------------14-13-12-10----------------------------|
|-------------------------------------------------12-------------------------|

Interlude
  E
|-15-14-15-19-15-14-15--15-14-15-19-15-14------------------------------------|
|-----------------------------------------15---------------------------------|
|----------------------------------------------------------------------------|
|----------------------------------------------------------------------------|
|----------------------------------------------------------------------------|
|----------------------------------------------------------------------------|

Second time C
  development and support by
dmitry ivanov