rock
 
|tablatures   |lyrics   |discussion forums   |more tabs @ XGuitar.com

Manowar tabs

Gloves Of Metal guitar tab

Manowar: Gloves of Metal(Intro Glory Ride)
Transcribed by HeXa

Standard Tuning

Riff 1 4x
|------------------------------------11-------11--12-11----------------------|
|---------------------------------------12-----------------------------------|
|---------6----------6----------6----------11--------------------------------|
|---------6----------6----------6--------------------------------------------|
|---------4----------4----------4--------------------------------------------|
|-0-0-0-0----0-0-0-0----0-0-0-0----------------------------------------------|

Riff 2
|-------------------------------------------|1st-----------------------------|
|-------------------------------------------|--------------------------------|
|---------6----------6----------6----------6|---------------------------4----|
|---------6----------6----------6----------6|-6-6-6-6-6-6-6-6-6-6-6--6--4----|
|---------4----------4----------4----------4|-6-6-6-6-6-6-6-6-6-6-6--6--2----|
|-0-0-0-0----0-0-0-0----0-0-0-0----0-0-0-0--|-4-4-4-4-4-4-4-4-4-4-4--4-------|

|2nd-------------------------------------------------------------------------|
|----------------------------------------------------------------------2-/4--|
|----------------------------------------------------------------------------|
|-6-6-6-6-6-6-6-6-6-6-6-6-6-6---4----6-6---3-3---6-6--3-3----2----4--6-------|
|-6-6-6-6-6-6-6-6-6-6-6-6-6-6---4----6-6---3-3---6-6--3-3----2----4--6-------|
|-4-4-4-4-4-4-4-4-4-4-4-4-4-4---2----4-4---1-1---4-4--1-1----0----2--4-------|

Play Riff 1 2x

Play Riff 2

Riff 3
|-----------------------------------------------|----------------------------|
|-----------------------------------------------|-------2-/4-----------------|
|----4-4------6-------4----------1st------------|--2nd-----------------------|
|-2--4-4---4--6---2---4---6-6-6-6-6-6-6-6-6-6-6-|--6-------------------------|
|-2--2-2---4--4---2---2---6-6-6-6-6-6-6-6-6-6-6-|--6-------------------------|
|-0--------2------0-------4-4-4-4-4-4-4-4-4-4-4-|--4-------------------------|

Solo(Riff 1 4x, Riff 2)
|-19(21)-19(21)----------------------------19(21)-19-17-16-------------------|
|----------------------------------------------------------19-17-15----------|
|----------------slide-strings-up...--------------------------------18-16----|
|-------------------------------------------------------------------------19-|
|----------------------------------------------------------------------------|
|----------------------------------------------------------------------------|

|--------|-------------------------------------------------------------------|
|--------|-------------------------------------------------------------------|
|--------|--4h6p4h6p4h6p4h6p4h6p4h6p4h6p-------------------------------------|
|-18-16--|-------------------------------4h6p4h6p4h6p4h6p4-------------------|
|--------|-------------------------------------------------4-6-4-------------|
|--------|-------------------------------------------------------------------|

|---------9-------------9-------------9-------------9------------------------|
|-----------12-9----------12-9----------12-9----------12-9-------------------|
|--11(13)--------11(13)--------11(13)--------11(13)--------11(13)------------|
|----------------------------------------------------------------------------|
|----------------------------------------------------------------------------|
|----------------------------------------------------------------------------|
                                  T       T       T       T       T
|------------------------19(21)-|-16p12p9-16p12p9-16p12p9-16p12p9-16p12p9----|
|-4(5)trill-4(5)-15(17)---------|--------------------------------------------|
|-------------------------------|--------------------------------------------|
|-------------------------------|--------------------------------------------|
|-------------------------------|--------------------------------------------|
|-------------------------------|--------------------------------------------|

|-T-------T-------T-------T-------T-------T-------|--------------------------|
|-16p12p9-16p12p9-16p12p9-16p12p9-16p12p9-16p12p9~|-17(19)-14-17-14----14-17-|
|-------------------------------------------------|-----------------16-------|
|-------------------------------------------------|--------------------------|
|-------------------------------------------------|--------------------------|
|-------------------------------------------------|--------------------------|

|----------------16---17(19)--16-17-16-14-16-14-12-14-12-14-12-14--11~-------|
|-14h17p14h17p14-------------------------------------------------------------|
|----------------------------------------------------------------------------|
|----------------------------------------------------------------------------|
|----------------------------------------------------------------------------|
|----------------------------------------------------------------------------|

|-11h12p11h12p11---14(16)-11-14-14(16)-11-14-14(16)-11-14-14(16)--19-18-16---|
|----------------------------------------------------------------------------|
|----------------------------------------------------------------------------|
|----------------------------------------------------------------------------|
|----------------------------------------------------------------------------|
|----------------------------------------------------------------------------|

|-21(23)-21(23)-21(23)-21(23)-21(23)---14~-----------------------------------|
|----------------------------------------------------------------------------|
|----------------------------------------------------------------------------|
|----------------------------------------------------------------------------|
|----------------------------------------------------------------------------|
|----------------------------------------------------------------------------|

...Play the rest of Riff 2

Play Riff 3

Play Fill: F#

Play Riff 2

Play Riff 3

Solo 2(Play Riff 1 2x)
|------------------------------------4---------|-------------------------17--|
|--------------------------------------7-4-----|-------------------17-19-----|
|---------------------------4-6-6(8)-------6---|----------16-18-19-----------|
|-----------------------4-6--------------------|-16-18-19--------------------|
|-4-4-4-4-4-4-4-4---4-6------------------------|-----------------------------|
|----------------------------------------------|-----------------------------|

|-19p17p16-19p17p16-19p17p16-19p17p16--19-17-16------------------------------|
|-----------------------------------------------19-17-15---------------------|
|--------------------------------------------------------17-16-14------------|
|-----------------------------------------------------------------17-16-14---|
|----------------------------------------------------------------------------|
|----------------------------------------------------------------------------|

|-------------------------------------------------------16(18)---------------|
|----------------------------------------------------------------------------|
|---------------------------------16(18)-br16-16(18)-br----------------------|
|---------------------------14-16--------------------------------------------|
|-14h16p14h16p14h16---14-16--------------------------------------------------|
|----------------------------------------------------------------------------|

|-------7------------7------------7-----------------------------21-21-19-----|
|---------10-7---------10-7---------10-7-----------------14-12~--------------|
|-9(11)--------9(11)--------9(11)----------8~----13p11~----------------------|
|----------------------------------------------------------------------------|
|----------------------------------------------------------------------------|
|----------------------------------------------------------------------------|

Play Riff 1 1x
  development and support by
dmitry ivanov