rock
 
|tablatures   |lyrics   |discussion forums   |more tabs @ XGuitar.com

Manowar tabs

Funeral March guitar tab

Funeral March		ManowaR

Instrumental nummer:

E|-------------------------------|
A|-------------------------------|
D|----------------------------12-|
G|--12-11-9---11-12--------11----|
B|------------------12--10-------|
E|-------------------------------|

E|-------------------------------|
A|-------------------------------|
D|-------------------------------|
G|--12-11-9---11-12--------------|
B|------------------12-15~~~-----|
E|-------------------------------|

E|-------------------------------|
A|-------------------------------|
D|----------------------------12-|
G|--12-11-9---11-12--------11----|
B|------------------12--10-------|
E|-------------------------------|

E|-------------------------------|
A|-------------------------------|
D|--9----------------------------|
G|----9-11-12-11-8^9-------------|
B|-------------------------------|
E|-------------------------------|

E|-10-9--7--9--10------9--7------|
A|-12-11-9--11-12-9--7-11-9------|
D|----------------11-9-----------|
G|-------------------------------|
B|-------------------------------|
E|-------------------------------|

E|-10-9--7--9--10----------------|
A|-12-11-9--11-12-9--12----------|
D|----------------11-14----------|
G|-------------------------------|
B|-------------------------------|
E|-------------------------------|
							    	
E|-10-9--7--9--10------9--5-2--9--12-9--6s7-|
A|-12-11-9--11-12-9--7-11-7-4--11-10-11-8s9-|
D|----------------11-9----------------------|
G|------------------------------------------|
B|------------------------------------------|
E|------------------------------------------|
  development and support by
dmitry ivanov