rock
 
|tablatures   |lyrics   |discussion forums   |more tabs @ XGuitar.com

Manowar tabs

Fighting The World guitar tab

Manowar: Fighting the World
Tabbed by HeXa

Standard Tuning(EADGBE)


INTRO
|----------------------------------------------------------------------------|
|----------------------------------------------------------------------------|
|----------------------------------------------------------------------------|
|-5-5--5-5--5-5-2-----5-5--5-5--5-5-2-------------5-5--5-5--5-5-2------------|
|-5-5--5-5--5-5-2-----5-5--5-5--5-5-2-------------5-5--5-5--5-5-2------------|
|-3-2--3-2--3-2-0-0-0-3-2--3-2--3-2-0-0-0-0-0-0-0-3-2--3-2--3-2-0-0-0--------|

|----------------------------------------------------------------------------|
|----------------------------------------------------------------------------|
|----------------------------------------------------------------------------|
|-5-5--5-5--5-5-5-7---2(Let-Ring)--------------------------------------------|
|-5-5--5-5--5-5-5-7---2------------------------------------------------------|
|-3-2--3-2--3-2-3-5---0------------------------------------------------------|


The Chord under the Lyrics is Just E


CHORUS
3x                          1x
|-17(echo-sound)-Guitar-2--|-------------------------------------------------|
|--------------8-7-5-------|-------------------------------------------------|
|------------7-------------|-------------------------------------------------|
|-2-------5-|--A.H---|-----|-7-5-4-2(Let-Ring)-------------------------------|
|-2-------5----------------|-7-5-4-2-----------------------------------------|
|-0-0-0-0-3----------------|-5-3-2-0-----------------------------------------|

SOLO  A.H    A.H
|----------------------------------------------------12-------12-------12----|
|------3------3--------------12h15p12h15p12h15p12h15----15-12----15-12---15--|
|-2(4)---2(4)---2(4)/\/\/\/--------------------------------------------------|
|----------------------------------------------------------------------------|
|----------------------------------------------------------------------------|
|----------------------------------------------------------------------------|

|----12-------13(15)--------------15p12h15p-12----12-15-12---12--12----------|
|-12----15-12----------------------------------15----------15-------15-12-15-|
|----------------------------------------------------------------------------|
|----------------------------------------------------------------------------|
|----------------------------------------------------------------------------|
|---------------------0\-\/\/\/\/--------------------------------------------|

|-12-------------------------------------------------------------------------|
|----15-12-15--15-12----12---------------------------------------------------|
|--------------------14----14-12-14(16)-12-----------------------------------|
|-------------------------------------------14-14-14-12-12-12----------------|
|-------------------------------------------------------------14-14-14-13-13-|
|----------------------------------------------------------------------------|

|----------------------------------------------------------------------------|
|----------------------------------------------------------------------------|
|----------------------------------------------------------------------------|
|----------------------------------------------------------------------------|
|-13-12-12-12-------------------sorry...the-volyme-is-too-low-so-I-couldn't--|
|-------------15-15-15-12-12-12----------------------------------------------|

|----------------------------------------------------------------------------|
|----------------------------------------------------------------------------|
|----------------------------------------------------------------------------|
|----------------------------------------------------------------------------|
|tab-the-rest-of-the-solo...-------------------------------------------------|
|----------------------------------------------------------------------------|
  development and support by
dmitry ivanov