rock
 
|tablatures   |lyrics   |discussion forums   |more tabs @ XGuitar.com

Manowar tabs

Fight Until We Die bass tab

G||--------------------------------------------------|
D||--------------------------------------------------|
A||--------------------------------------------------|
E||--5-5-5-5-5-5-5-5-5-5-5-5-5-5-5-5-5-5-5-5-5-5-5-5-|



----------------------------------|
----------------------------------|
----------------------------------|
--1---1-1-1-1-1---1-1-1-1-1---3---|



--------------------------------------------------|
--------------------------------------------------|
--------------------------------------------------|
--5-5-5-5-5-5-5-5-5-5-5-5-5-5-5-5-5-5-5-5-5-5-5-5-|



----------------------------------|
----------------------------------|
----------------------------------|
--1---1-1-1-1-1---1-1-1-1-1---3---|



--------------------------------------------------|
--------------------------------------------------|
--------------------------------------------------|
--5-5-5-5-5-5-5-5-5-5-5-5-5-5-5-5-5-5-5-5-5-5-5-5-|



----------------------------------|
----------------------------------|
----------------------------------|
--1---1-1-1-1-1---1-1-1-1-1---3---|



--------------------------------------------------|
--------------------------------------------------|
--------------------------------------------------|
--5-5-5-5-5-5-5-5-5-5-5-5-5-5-5-5-5-5-5-5-5-5-5-5-|



----------------------------------------|----------------------------------|
----------------------------------------|----------------------------------|
----------------------------------------|----------------------------------|
--5-5-5-5-5-5-5---5-5-5-5-5-5-5---------|--5-5-5-5-5-5-5-5-5-5-5-5-5-5-5-5-|



----------------------------------|----------------------------------|
----------------------------------|----------------------------------|
----------------------------------|----------------------------------|
--5-5-5-5-5-5-5-5-5-5-5-5-5-5-5-5/|--1-1-1-1-1-1-1-1-1-1-1-1-1-1-1-1-|



----------------------------------|----------------------------------|
----------------------------------|----------------------------------|
----------------------------------|----------------------------------|
--1-1-1-1-1-1-1-1-1-1-1-1-1-1-1-1/|--5-5-5-5-5-5-5-5-5-5-5-5-5-5-5-5-|



----------------------------------|----------------------------------|
----------------------------------|----------------------------------|
----------------------------------|----------------------------------|
--5-5-5-5-5-5-5-5-5-5-5-5-5-5-5-5/|--1-1-1-1-1-1-1-1-1-1-1-1-1-1-1-1-|



----------------------------------|----------------------------------|
----------------------------------|----------------------------------|
----------------------------------|----------------------------------|
--1-1-1-1-1-1-1-1-1-1-1-1-1-1-1-1/|--3-3-3-3-3-3-3-3-3-3-3-3-3-3-3-3-|



----------------------------------|----------------------------------|
----------------------------------|----------------------------------|
----------------------------------|----------------------------------|
--5-5-5-5-5-5-5-5-5-5-5-5-5-5-5-5-|--3-3-3-3-3-3-3-3-3-3-3-3-3-3-3-3-|



----------------------------------|----------------------------------|
----------------------------------|----------------------------------|
----------------------------------|----------------------------------|
--1-1-1-1-1-1-1-1-0-0-0-0-0-0-0-0-|--5-5-5-5-5-5-5-5-5-5-5-5-5-5-5-5-|



----------------------------------|----------------------------------|
----------------------------------|----------------------------------|
----------------------------------|----------------------------------|
--1-1-1-1-1-1-1-1-1-1-1-1-1---3---|--5-5-5-5-5-5-5-5-5-5-5-5-5-5-5-5-|



----------------------------------|----------------------------------|
----------------------------------|----------------------------------|
----------------------------------|----------------------------------|
--1-1-1-1-1-1-1-1-1-1-1-1-1-1-1-1-|--3-3-3-3-3-3-3-3-3-3-3-3-3-3-3-3-|



----------------------------------|----------------------------------|
----------------------------------|----------------------------------|
----------------------------------|----------------------------------|
--5-5-5-5-5-5-5-5-5-5-5-5-5-5-5-5-|--3-3-3-3-3-3-3-3-3-3-3-3-3-3-3-3-|



----------------------------------|----------------------------------|
----------------------------------|------------------2---0-----------|
----------------------------------|--------------------------3---2---|
--1-1-1-1-1-1-1-1-1-1-1-1-1-1-1-1-|--0-0-0-0-0-0-0-0-----------------|



-------------------|-------------------|----------------------------|
-------------------|-------------------|----------------------------|
--0----------------|--5----------------|----------------------------|
-------------------|-------------------|--1------------3------------|



-------------------|-------------------|-------------------|
-------------------|-------------------|-------------------|
--0----------------|--0----------------|--5----------------|
-------------------|-------------------|-------------------|



----------------------------|-------------------|----------------------------|
----------------------------|-------------------|----------------------------|
----------------------------|-------------------|----------------------------|
--1------------3------------|--0----------------|--1------------3------------|



--------------------------------------------|
--------------------------------------------|
--------------------------------------------|
--5-5-5-5-5-5-5---5-5-5-5-5-5-5-5-5-5---3---|



--------------------------------------------|
--------------------------------------------|
--------------------------------------------|
--5-5-5-5-5-5-5---5-5-5-5-5-5-5-5-5-5---3---|



--------------------------------------------|
--------------------------------------------|
--------------------------------------------|
--5-5-5-5-5-5-5---5-5-5-5-5-5-5-5-5-5---3---|



----------------------------------------|----------------------------------|
----------------------------------------|----------------------------------|
----------------------------------------|----------------------------------|
--5-5-5-5-5-5-5---5-5-5-5-5-5-5---------|--5-5-5-5-5-5-5-5-5-5-5-5-5-5-5-5-|



----------------------------------|----------------------------------|
----------------------------------|----------------------------------|
----------------------------------|----------------------------------|
--1-1-1-1-1-1-1-1-1-1-1-1-1---3---|--5-5-5-5-5-5-5-5-5-5-5-5-5-5-5-5-|



----------------------------------|----------------------------------|
----------------------------------|----------------------------------|
----------------------------------|----------------------------------|
--1-1-1-1-1-1-1-1-1-1-1-1-1-1-1-1-|--3-3-3-3-3-3-3-3-3-3-3-3-3-3-3-3-|



----------------------------------|----------------------------------|
----------------------------------|----------------------------------|
----------------------------------|----------------------------------|
--5-5-5-5-5-5-5-5-5-5-5-5-5-5-5-5-|--3-3-3-3-3-3-3-3-3-3-3-3-3-3-3-3-|



----------------------------------|----------------------------------|
----------------------------------|------------------2---0-----------|
----------------------------------|--------------------------3---2---|
--1-1-1-1-1-1-1-1-1-1-1-1-1-1-1-1-|--0-0-0-0-0-0-0-0-----------------|



-------------------|-------------------|----------------------------|
-------------------|-------------------|----------------------------|
--0----------------|--5----------------|----------------------------|
-------------------|-------------------|--1------------3------------|



-------------------|-------------------|-------------------|
-------------------|-------------------|-------------------|
--0----------------|--0----------------|--5----------------|
-------------------|-------------------|-------------------|



----------------------------|-------------------|----------------------------|
----------------------------|-------------------|----------------------------|
----------------------------|-------------------|----------------------------|
--1------------3------------|--0----------------|--1------------3------------|



--------------------------------------------|
--------------------------------------------|
--------------------------------------------|
--5-5-5-5-5-5-5---5-5-5-5-5-5-5-5-5-5---3---|



--------------------------------------------|
--------------------------------------------|
--------------------------------------------|
--5-5-5-5-5-5-5---5-5-5-5-5-5-5-5-5-5---3---|



--------------------------------------------|
--------------------------------------------|
--------------------------------------------|
--5-5-5-5-5-5-5---5-5-5-5-5-5-5-5-5-5---3---|



----------------------------------------|----------------------------------|
----------------------------------------|----------------------------------|
----------------------------------------|----------------------------------|
--5-5-5-5-5-5-5---5-5-5-5-5-5-5---------|--5-5-5-5-5-5-5-5-5-5-5-5-5-5-5-5-|



----------------------------------|----------------------------------|
----------------------------------|----------------------------------|
----------------------------------|----------------------------------|
--5-5-5-5-5-5-5-5-5-5-5-5-5-5-5-5/|--1-1-1-1-1-1-1-1-1-1-1-1-1-1-1-1-|



----------------------------------|----------------------------------|
----------------------------------|----------------------------------|
----------------------------------|----------------------------------|
--1-1-1-1-1-1-1-1-1-1-1-1-1-1-1-1/|--5-5-5-5-5-5-5-5-5-5-5-5-5-5-5-5-|



----------------------------------|----------------------------------|
----------------------------------|----------------------------------|
----------------------------------|----------------------------------|
--5-5-5-5-5-5-5-5-5-5-5-5-5-5-5-5/|--1-1-1-1-1-1-1-1-1-1-1-1-1-1-1-1-|



----------------------------------|----------------------------------|
----------------------------------|----------------------------------|
----------------------------------|----------------------------------|
--1-1-1-1-1-1-1-1-1-1-1-1-1-1-1-1/|--3-3-3-3-3-3-3-3-3-3-3-3-3-3-3-3-|



----------------------------------|----------------------------------|
----------------------------------|----------------------------------|
----------------------------------|----------------------------------|
--5-5-5-5-5-5-5-5-5-5-5-5-5-5-5-5-|--3-3-3-3-3-3-3-3-3-3-3-3-3-3-3-3-|



----------------------------------|----------------------------------|
----------------------------------|----------------------------------|
----------------------------------|----------------------------------|
--1-1-1-1-1-1-1-1-0-0-0-0-0-0-0-0-|--5-5-5-5-5-5-5-5-5-5-5-5-5-5-5-5-|



----------------------------------|----------------------------------|
----------------------------------|----------------------------------|
----------------------------------|----------------------------------|
--1-1-1-1-1-1-1-1-1-1-1-1-1---3---|--5-5-5-5-5-5-5-5-5-5-5-5-5-5-5-5-|



----------------------------------|----------------------------------|
----------------------------------|----------------------------------|
----------------------------------|----------------------------------|
--1-1-1-1-1-1-1-1-1-1-1-1-1-1-1-1-|--3-3-3-3-3-3-3-3-3-3-3-3-3-3-3-3-|



----------------------------------|----------------------------------|
----------------------------------|----------------------------------|
----------------------------------|----------------------------------|
--5-5-5-5-5-5-5-5-5-5-5-5-5-5-5-5-|--3-3-3-3-3-3-3-3-3-3-3-3-3-3-3-3-|



----------------------------------|----------------------------------|
----------------------------------|------------------2---0-----------|
----------------------------------|--------------------------3---2---|
--1-1-1-1-1-1-1-1-1-1-1-1-1-1-1-1-|--0-0-0-0-0-0-0-0-----------------|



-------------------|-------------------|----------------------------|
-------------------|-------------------|----------------------------|
--0----------------|--5----------------|----------------------------|
-------------------|-------------------|--1------------3------------|



-------------------|-------------------|-------------------|
-------------------|-------------------|-------------------|
--0----------------|--0----------------|--5----------------|
-------------------|-------------------|-------------------|



----------------------------|-------------------|-------------------|
----------------------------|-------------------|-------------------|
----------------------------|--0----------------|--0----------------|
--1------------3------------|-------------------|-------------------|



-------------------|----------------------------|-------------------|
-------------------|----------------------------|-------------------|
--5----------------|----------------------------|--0----------------|
-------------------|--1------------3------------|-------------------|



-------------------|-------------------|----------------------------|
-------------------|-------------------|----------------------------|
--0----------------|--5----------------|----------------------------|
-------------------|-------------------|--1------------3------------|



-------------------|----------------------------|----------------------------|
-------------------|----------------------------|----------------------------|
-------------------|----------------------------|----------------------------|
--0----------------|--1------------3------------|--1------------3------------|



----------------------------|--------------------------------------------|
----------------------------|--------------------------------------------|
----------------------------|--------------------------------------------|
--1------------3------------|--5-5-5-5-5-5-5---5-5-5-5-5-5-5-5-5-5---3---|



--------------------------------------------|
--------------------------------------------|
--------------------------------------------|
--5-5-5-5-5-5-5---5-5-5-5-5-5-5-5-5-5---3---|



--------------------------------------------|
--------------------------------------------|
--------------------------------------------|
--5-5-5-5-5-5-5---5-5-5-5-5-5-5-5-5-5---3---|



--------------------------------------------|
--------------------------------------------|
--------------------------------------------|
--5-5-5-5-5-5-5---5-5-5-5-5-5-5-5-5-5---3---|



--------------------------------------------|
--------------------------------------------|
--------------------------------------------|
--5-5-5-5-5-5-5---5-5-5-5-5-5-5-5-5-5---3---|



--------------------------------------------|
--------------------------------------------|
--------------------------------------------|
--5-5-5-5-5-5-5---5-5-5-5-5-5-5-5-5-5---3---|



--------------------------------------------|
--------------------------------------------|
--------------------------------------------|
--5-5-5-5-5-5-5---5-5-5-5-5-5-5-5-5-5---3---|



--------------------------------------------|
--------------------------------------------|
--------------------------------------------|
--5-5-5-5-5-5-5---5-5-5-5-5-5-5-5-5-5---3---|



----------------------------------------||
----------------------------------------||
----------------------------------------||
--5-5-5-5-5-5-5---5-5-5-5-5-5-5---------||
  development and support by
dmitry ivanov