rock
 
|tablatures   |lyrics   |discussion forums   |more tabs @ XGuitar.com

Manowar tabs

Defender guitar tab

-----------------------------------------------------------------------------
			     Defender - Manowar
                    Fighting the World Album
-----------------------------------------------------------------------------

By: Jan Willem (eckhardt@zeelandnet.nl)

Intro:

e|---------------------------------|--------------------------------|
B|---------------------------------|--------------------------------|
G|-------2-------------------------|-----2-------2-2------2-------2-|
D|-----2---2-----------------------|---2---2---2--2-2---2---2---2--2|
A|---0-------0---------------------|-0-------0--------0-------0-----|
E|---------------------------------|--------------------------------|

e|--------------------------------------------------------------------|
B|--------------------------------------------------------------------|
G|---------5-------7----------10-----------------2--------------------|
D|-------5-------7---------10---------12-------2---2------------------|
A|-0-2-3-----3-5-----5-7-8-------8-10----10--0-------0----------------|
E|--------------------------------------------------------------------|

During spoken parts:

e|------------------------------------------------------|
B|------------------------------------------------------|
G|-----2-------2-2------2-------2---------5-------7-----|
D|---2---2---2--2-2---2---2---2--2------5-------7-------|
A|-0-------0--------0-------0-----0-2-3-----3-5-----5-0-|
E|------------------------------------------------------|

During refrain:

F G   C D   F G  D
F G   C D   F G  E


Begin 2nd part:

Father[A], Father[A]

                        e|-----------|
                        B|-----------|
                        G|---------5-|
                        D|-------5---|
                        A|-0-2-3-----|
                        E|-----------|

Father I look up to you

And so on.

This is all I have of this song, so if somebody has any corrections
and/or additions to this, send them please.

++++++++++++++++++++++++++++++++++++++++++++++++++

ManowaR: Defender solo(Fighting the World)
Transcribed by HeXa(Heikki.Mustonen@kymp.net)

Standard Tuning

Comments: Ok, There is NO 2nd solo. Anyway if U'd be playing it live U would
be playing the chorus. Right?...If somebody is interested about the second
solo...Contact and I might transcribe it. ...and U can't even hear what Ross
is playing 'cause Eric sings.


|-17(feeedback)---------------------------------------|----------------------|
|-----------------------------------------------------|----------------------|
|-----------------some-slidinstuff-I-guess--------2-2-|-5-7-5--7(9)-br-5-----|
|---------------------------------------------0-2-----|------------------7---|
|-----------------------------------------------------|----------------------|
|-----------------------------------------------------|----------------------|

|--------------|-------------------------------------------------------------|
|--------------|-------------------------------------------8-7--8p7h8p7h8p7h8|
|--------------|---------7(9)-br-5---5h7p5h7p5h7p5h7p5h7p5-------------------|
|-5------------|-----5-7-----------7-----------------------------------------|
|---7-6-5-3----|-5-7---------------------------------------------------------|
|-----------5--|-------------------------------------------------------------|

|----|-20(22)-br----17--------------20(22)-br--17--------------20-17---------|
|-5~-|-----------------20-17----------------------20-17--------------20-17---|
|----|-----------------------19(21)---------------------19(21)---------------|
|----|-----------------------------------------------------------------------|
|----|-----------------------------------------------------------------------|
|----|-----------------------------------------------------------------------|

|--------|-----------17-----------------------------------------20(22)-------|
|--------|-17-20(22)----20-17----20-17----20-17-----------17-20--------------|
|-19-17~-|--------------------19-------19-------19(21)-----------------------|
|--------|-------------------------------------------------------------------|
|--------|-------------------------------------------------------------------|
|--------|-------------------------------------------------------------------|

|-20p19p17----------20p19p17----------20p19p17----------20p19p17-------------|
|----------20p19p17----------20p19p17----------20p19p17----------20p19p17----|
|----------------------------------------------------------------------------|
|----------------------------------------------------------------------------|
|----------------------------------------------------------------------------|
|----------------------------------------------------------------------------|

|-20p19p17----------20p19p17----------|--------------------------------------|
|----------20p19p17----------20p19p17-|-8(10)-5-8-5---5----------------------|
|-------------------------------------|-------------7---7(9)-5-7-5---7-------|
|-------------------------------------|----------------------------7---------|
|-------------------------------------|--------------------------------------|
|-------------------------------------|--------------------------------------|

|----------------------------------------------------------------------------|
|-13------13-10--------------------------------------------------------------|
|-12(14)--------12-9---------------------------------------------------------|
|--------------------12-10----P.H--------------------------------------------|
|--------------------------12-10------------0-------------------------------|
|--------------------------------12-10---------------------------------------|
  development and support by
dmitry ivanov