rock
 
|tablatures   |lyrics   |discussion forums   |more tabs @ XGuitar.com

Manowar tabs

Courage bass tab

Courage by Manowar
-Bass Tab-

From album "Louder Than Hell"
Transcribed by André Baida from Brazil.
CounterParts HomePage: http://www.geocities.com/SunsetStrip/Lounge/5575
E-Mail: andrecp@bestway.com.br



Tune: E A D G

	Intro Piano...
		        

	Vocals: And the wind will bear my cry to all who hope to fly

G---------7----------------------------4----------------------------------
D-------------------------7-----------------------------------------------
A--5-5-5----5-5h7----------------2-2-2---2-2h4----------------------------
E-------------------5-5-5---5-5-----------------2-2-2-2-2-2---------------

	Here this song of courage ride into the night

G-------------------------------------------------------------------------
D------5--------5h7-------------------------------------------------------
A------------5------5-----------------------------------------------------
E--3-3---3-------------0-2-3-5-5-5----------------------------------------


	Bridge: Battle are fought by those with the courage to believe

G------------------------------------------------------------
D------------------------------------------------------------
A-2-2-2-2-2-------------5-5-5-5-5----------------------------
E------------3-3-3-3-3-------------5-5-5-5-5-----------------

	They are won by those who find the heart Find a heart to share

G-------------------------------------------------------------
D-------------------------------------------------------------
A-2-2-2-2-2-------------5-5-5-5-5-----------------------------
E------------3-3-3-3-3-------------5-5-5-5-5------------------

	This heart that fills the soul will point the way to victory

G-------------------------------------------------------------
D-------------------------------------------------------------
A-2-2-2-2-2-------------5-5-5-5-5-----------------------------
E------------3-3-3-3-3-------------5-5-5-5-5------------------

	If there's a fight then I'll be there I'll be there

G--------------------------------------------------------------
D--------------------------------------------------------------
A--------------------------------------------------------------
E-3-3-3-3-3-3-3-3-3-3--5-5-5-5-5-5-5-5-5-5---------------------


	So for now..... Repeat vocals

Piano.
End.
  development and support by
dmitry ivanov