rock
 
|tablatures   |lyrics   |discussion forums   |more tabs @ XGuitar.com

Manowar tabs

Carry On guitar tab

Manowar: Carry On(Fighting the World)
Tabbed by HeXa(Heikki.Mustonen@kymp.net)

Standard Tuning (As always)

INTRO
Acoustic Steel-String                   2x
|----0---------0---------0--------0----|---0--------0------------------------|
|------0---------0---------0--------0--|-----0--------0----------------------|
|--------1---------1---------1--------1|-------1--------1--------------------|
|--------------------------------------|-------------------------------------|
|--------------------------------------|-------------------------------------|
|-0----------0--------0---------0------|-0--------0--------------------------|

                                      1st           2nd
|---2--------2---------4--------4----|---2---------|---0---------------------|
|-----4--------4---------5--------5--|-----4-------|-----0-------------------|
|-------4--------4---------4--------4|-------4-----|-------2-----------------|
|------------------------------------|-------------|-------------------------|
|-2--------2---------4--------4------|-2---------2-|-0-------0---------------|
|------------------------------------|-------------|-------------------------|

Then Play
|---4--------4--------2--------2--------0--------0----------------2----------|
|-----5--------5--------4--------4--------0--------0------------2------------|
|-------4--------4--------4--------4--------1--------1--------2--------------|
|-----------------------------------------------------------4----------------|
|-4--------4--------2--------2----------------------------4------------------|
|-------------------------------------0--------0--------2--------------------|

Some Drumming here...

Riff 1 The Chords are E, B, C#, A, - E, B, C, B, - C#C#C#C# D#D#D#D# E F#

Chorus E E E E B B E E E E  A A E D# E- E E E E  A A E D# E

Solo(Riff 1)
|-------------------------------------------------------------------------10-|
|-----------------------------------------------10-9---10-9---10-9--10-12----|
|-------------------------9(11)br----------9-11------9------9----------------|
|--------9-----9-11--9-11---------9-11-11------------------------------------|
|-7-9-11----11---------------------------------------------------------------|
|----------------------------------------------------------------------------|

|-12(14)-12(14)-14(16)-14(16)--------------------------------------9-11-12---|
|----------------------------------------------------------9-10-12-----------|
|--------------------------------------------8h9----8-9-11-------------------|
|-------------------------------------7-9-11-----11--------------------------|
|------------------------------7-9-11----------------------------------------|
|----------------------------------------------------------------------------|

|-14-12-16-14-17-16-19-17-19(21)---------------------------------------------|
|----------------------------------------------------------------------------|
|----------------------------------------------------------------------------|
|----------------------------------------------------------------------------|
|----------------------------------------------------------------------------|
|----------------------------------------------------------------------------|

The Outro Riff: E A  A B C#

Song Structure:
INTRO
Riff 1
Chorus
Riff 1
Chorus
Riff 1
Chorus
Solo
Outro Riff(Fade out)
  development and support by
dmitry ivanov