rock
 
|tablatures   |lyrics   |discussion forums   |more tabs @ XGuitar.com

Manowar tabs

Carry On bass tab

G||------|------|---------------------|-------------------|-------------------|
D||------|------|---------------------|-------------------|-------------------|
A||------|------|---------------------|--2----------------|--4----------------|
E||------|------|--0--------2----4----|-------------------|-------------------|



-------------------|---------------------|-------------------|
-------------------|---------------------|-------------------|
--2----------------|---------------------|--2----------------|
-------------------|--0--------2----4----|-------------------|



-------------------|-------------------|-------------------|-------------------|
-------------------|-------------------|-------------------|-------------------|
--4----------------|--0----------------|--4----------------|--6----------------|
-------------------|-------------------|-------------------|-------------------|



-------------------|------|------|------|------|------|------|------|------|
-------------------|------|------|------|------|------|------|------|------|
--7----------------|------|------|------|------|------|------|------|------|
-------------------|------|------|------|------|------|------|------|------|



|-------------------|------------------|------------------|------------------|
|*------------------|------------------|------------------|------------------|
|*------------------|--2-2-2-2-2-2-2-2-|--4-4-4-4-4-4-4-4-|--0-0-0-0-0-0-0-0-|
|---0-0-0-0-0-0-0-0-|------------------|------------------|------------------|



------------------|------------------|------------------|------------------|
------------------|------------------|------------------|------------------|
------------------|--2-2-2-2-2-2-2-2-|--4-4-4-4-4-4-4-4-|--2-2-2-2-2-2-2-2-|
--0-0-0-0-0-0-0-0-|------------------|------------------|------------------|



------------------|------------------|-----------|-----------|
------------------|------------------|-----------|-----------|
--4/7-4-4-4-4-4-4-|--6-6-6-6-6-6-6-6-|--7--------|--9--------|
------------------|------------------|-----------|-----------|



------------------|------------------|------------------|------------------|
------------------|------------------|------------------|------------------|
------------------|------------------|------------------|--2-2-2-2-2-2-2-2-|
--0-0-0-0-0-0-0-0-|--0-0-0-0-0-0-0-0-|--0-0-0-0-0-0-0-0-|------------------|



------------------|------------------|--------------|-----------|----------|
------------------|------------------|--------------|-----------|----------|
------------------|------------------|--------------|--7--------|----------|
--0-0-0-0-0-0-0-0-|--0-0-0-0-0-0-0-0-|--5--5--7--7--|-----------|----------|


                                                                3x
----------|--------------|------------------|-------------------||
----------|--------------|------------------|------------------*||
----------|--------------|------------------|------------------*||
----------|--5--5--7--7--|--12/-0-0-0-0-0-0-|--0-0-0-0-0-0-0-0--||



------------------|-------------|-------------|-------------|-----------|
------------------|-------------|-------------|-------------|-----------|
------------------|-------------|--2-------2--|--4----4-2---|--0--------|
--0-0-0-0-0-0-0-0-|--0----2-4---|-------4-----|-------------|-----------|



-------------|-------------|-------------|-----------|------------------|
-------------|-------------|-------------|-----------|------------------|
-------------|--2-------2--|--4----4-2---|--2--------|--4-4-4-4-4-4-4-4-|
--0----2-4---|-------4-----|-------------|-----------|------------------|



------------------|------------------|-----------|------|------|------|------|
------------------|------------------|-----------|------|------|------|------|
--6-6-6-6-6-6-6-6-|--7-7-7-7-7-7-7-7-|--9--------|------|------|------|------|
------------------|------------------|-----------|------|------|------|------|



------|------|------||-------------------|------------------|--------------|
------|------|------||*------------------|------------------|--------------|
------|------|------||*------------------|------------------|--0--0--2--2--|
------|------|------||---0-0-0-0-0-0-0-0-|--0-0-0-0-0-0-0-0-|--------------|



------------------|------------------|------------------|--------------|
------------------|------------------|------------------|--------------|
------------------|------------------|------------------|--0--0--2--2--|
--0-0-0-0-0-0-0-0-|--0-0-0-0-0-0-0-0-|--0-0-0-0-0-0-0-0-|--------------|


                   5x
-------------------||------||
------------------*||------||
------------------*||------||
--0-0-0-0-0-0-0-0--||------||
  development and support by
dmitry ivanov