rock
 
|tablatures   |lyrics   |discussion forums   |more tabs @ XGuitar.com

Manowar tabs

Burning guitar tab

Manowar: Burning(The Triumph of Steel)
Transcribed by HeXa(Heikki.Mustonen@kymp.net)

Standard Tuning

Riff 1
|----------------------------------------------------------------------------|
|----------------------------------------------------------------------------|
|----------------------------------------------------------------------------|
|-9-------9/\/\/\---10------10/\/\/\-----------------------------------------|
|-7-------7/\/\/\---7-------7-/\/\/------------------------------------------|
|---0-0-0-------------0-0-0--------------------------------------------------|

Riff 2
|----------------------------------------------------------------------------|
|----------------------------------------------------------------------------|
|----------------------------------------------------------------------------|
|-9-------9---9-----10------10--10-----------------------------------------------|
|-7-------7---7-----7-------7---7------------------------------------------------|
|---0-0-0---0---0-----0-0-0---0---0----------------------------------------------|

Solo
|-----------------------------------------------20p15-18---18p15-------------|
|----------------------------------------------------------------17----------|
|some-strange-noises..then------------12h15-15------------------------12-----|
|-----------------------------5h8-8-----------------------------------12-----|
|----------------------------------------------------------------------------|
|----------------------------------------------------------------------------|

|-24///////--4x-------------14-19-14--------|--------------------------------|
|-N.H--------------------15----------15-----|--------------------------------|
|---------------------16----------------16--|-12-14\/\-----0\----------------|
|------------------16-----------------------|-12-14/\/\/---------------------|
|------------14-17--------------------------|--------------------------------|
|-------------------------------------------|--------------------------------|

The Next Part is kinda weirdo...I think it's played by pullin the trem up
and fretting the strings up...

Dunno about what happens then 'cause it's played with a somekind Harmonizer
and I don't have a one...

Song Structure:

Riff 1 4x
Talk
Riff 2 4x
Talk
Solo
Riff 1 4x
Riff 2 Many Times and fade out...
  development and support by
dmitry ivanov