rock
 
|tablatures   |lyrics   |discussion forums   |more tabs @ XGuitar.com

Manowar tabs

Brothers Of Metal guitar tab

Manowar - Brothers of Metal ( Metal Warriors part 2 )
From the album louder than hell
Transcribed by Dave "Thornus"

sorry no solo !

Intro
|-0---------------------------------||
|--0--------------------------------||
|---0-------------------------------||
|----9-----9----------9--9-9-9\-----||
|-----7----7----------7--7-7-7\-----||
|-----------------------------------||

Riff 1
|-----------------------------------------------------||
|-----------------------------------------------------||
|-----------------------------------------------------||
|-----------------------------------------------------||
|-------------333333333333------------000000222222----||
|-000000000000------------333333333333----------------||
P.M...............................................

Riff 2                   Fill 1
|------------------------||  |----------------------||
|------------------------||  |----------------------||
|------------------------||  |----------------------||
|------------------------||  |----------------------||
|-333333555555777777-----||  |-555555------2222222--||
|------------------------||  |-------333333---------||
P.M.................         P.M..................

Chorus                           Fill2
|--------------------------------||  |---------------------------||
|--------------------------------||  |---------------------------||
|--------------------------------||  |---------------------------||
|--9-------------5------------7--||  |---------------------------||
|--7-------------3------------5--||  |---------------------------||
|--------------------------------||  |-000000000000000000000000--||
                                 P.M.......................
Riff 3
|-----------------------------------------------------||
|-----------------------------------------------------||
|-----------------------------------------------------||
|-------------5-----------------------2-----4---------||
|-2-----------3-----------5-----------0-----2---------||
|-0-----------------------3---------------------------||

Song structure

Intro
Riff 1 x2
Riff 2 x3
fill 1 x1
chorus x4
fill 2 x1
riff 1 x2
riff 2 x3
fill 1 x1
chorus x4
solo
riff 3 x2
chorus repeat till end

Manowar: Brothers of Metal solo(Louder than Hell)
Transcribed by HeXa(Heikki.Mustonen@kymp.net)

Standard Tuning

   T     T     T     T     T     T     T     T     T     T     T     T
|--15p12-15p12-15p12-15p12-15p12-15p12-17p14-17p14-17p14-17p14-17p14-17p14---|
|----------------------------------------------------------------------------|
|----------------------------------------------------------------------------|
|----------------------------------------------------------------------------|
|----------------------------------------------------------------------------|
|0\--------------------------------------------------------------------------|
  T      T     T     T     T     T
|-19p15p-19p15-19p15-19p15-19p15-19p15-|-17-19-20-19-17----------------------|
|--------------------------------------|----------------20-19-17-19-17-15----|
|--------------------------------------|-------------------------------------|
|--------------------------------------|-------------------------------------|
|--------------------------------------|-------------------------------------|
|--------------------------------------|-------------------------------------|

|----------------------------------------------------------------------------|
|-17-15-13-15-13-12-13-12----12----------------------------------------------|
|-------------------------14----14-12-14-12-11-12-11----11-------------------|
|----------------------------------------------------14----14-12-10-14-12-10-|
|----------------------------------------------------------------------------|
|----------------------------------------------------------------------------|

|-----|----------------------------------------------------------------------|
|-----|-------------------------------------P.H------------------------------|
|-----|-14(16)-14-12-14(16)-14(16)-br-12----12-----P.H-----------------------|
|-----|----------------------------------14----14--12-14-12------------------|
|-14~-|-----------------------------------------------------14-13-12---------|
|-----|--------------------------------------------------------------15------|

|----19-17----------------------------------------------------------22-20-19-|
|----------20-19-17----------------------------------------17-19-20----------|
|-------------------19-17-16----------------------16-17-19-------------------|
|----------------------------19-17-16----16-17-19----------------------------|
|-------------------------------------19-------------------------------------|
|----------------------------------------------------------------------------|

|--------------------------------------------------------------------17-19-20|
|-22-20-19--20-19-17----------------------------------------17-19-20---------|
|--------------------19-17-16----------------------16-17-19------------------|
|-----------------------------19-17-16----16-17-19---------------------------|
|--------------------------------------19------------------------------------|
|----------------------------------------------------------------------------|

|----------19-20-22-22(24)---------------------------------------------------|
|-19-20-22-------------------------------------------------------------------|
|----------------------------------------------------------------------------|
|----------------------------------------------------------------------------|
|----------------------------------------------------------------------------|
|----------------------------------------------------------------------------|
  development and support by
dmitry ivanov