rock
 
|tablatures   |lyrics   |discussion forums   |more tabs @ XGuitar.com

Manowar tabs

Brothers Of Metal bass tab

Brothers Of Metal Pt. 1 by Manowar
-Bass Tab-

From album "Louder Than Hell"
Transcribed by André Baida from Brazil
CounterParts HomePage: http://www.geocities.com/SunsetStrip/Lounge/5575
E-Mail: andrecp@bestway.com.br



Tune: E A D G

	1.Strike while the iron is hot        Steel is strongest so say we all
	2.Let us drink to the power   	  Drink to the sound
	        
G--9------------------------------------------------------------------------------------
D--9--------------------------------------5-5-5-5-5-5-5-5-7-7-7-7-9-9-9-9---------------
A--7----7-7-7-7-7-7-7-7-7-3-3-3-3-3-3-3-3----------------------------------7---7-7-7-7--
E--0------------------------------------------------------------------------------------

	1.And if we all were not brothers of metal would we fall? No
	2.Thunder and metal are shaking the ground

G--------------------------------------------------------------------
D-----------------------------------5-5-5-5-5-5-5-5-7-7-7-7-9-9-9-9--
A---7-7-7-7-7-7-7-7-3-3-3-3-3-3-3-3----------------------------------
E--------------------------------------------------------------------

	1.They tried to quest our spirit they tasted steel before we were done
	2.Drink to your brothers who are never to fall

G--------------------------------------------------------------------
D-----------------------------------5-5-5-5-5-5-5-5-7-7-7-7-9-9-9-9--
A---7-7-7-7-7-7-7-7-3-3-3-3-3-3-3-3----------------------------------
E--------------------------------------------------------------------

	1.Grinding their bones into the dust of the past all blown away like a shot from a gun
	2.We're brothers of metal here in the hall

G--------------------------------------------------------------------
D-----------------------------------5-5-5-5-5-5-5-5-7-7-7-7-9-9-9-9--
A---7-7-7-7-7-7-7-7-3-3-3-3-3-3-3-3----------------------------------
E--------------------------------------------------------------------

	1.We cast our lot together	
	2.Our hearts are filled with metal

G------------------------------------------------------------------
D------------------------------------------------------------------
A--3-3-3-3-3-3-5-5-5-5-5-5-7-7-7-7-7-7-7-9-10-9--------------------
E------------------------------------------------------------------

	1.Four still stand as one
	2.And masters we have none

G------------------------------------------------------------------
D------------------------------------------------------------------
A--3-3-3-3-3-3-5-5-5-5-5-5-7-7-7-7-7-7-7-10-9-10-------------------
E------------------------------------------------------------------

	1.Here we'll remain forever
	2.And we will die for metal

G------------------------------------------------------------------
D------------------------------------------------------------------
A--3-3-3-3-3-3-5-5-5-5-5-5-7-7-7-7-7-7-7-7-7-7---------------------
E------------------------------------------------------------------

	1.Till our kingdoms one				Brothers of metal
	2.Metal heals, my son

G------------------------------------------------------------------
D------------------------------------------------------------------
A--5-5-5-5-5-5--4-4-4-4-4-4--2-2-2-2-2-2---------------------------
E------------------------------------------------------------------

	We are fighting with power and still

G------------------------------------------------------------------
D------------------------------------------------------------------
A--7-7-7-7-7-7-7-7-7--3-3-3-3-3-3-5-5-5-5-5-5-5--------------------
E------------------------------------------------------------------

	Fighting for metal Metal that's real

G------------------------------------------------------------------
D------------------------------------------------------------------
A--7-7-7-7-7-7-7-7-7--3-3-3-3-3-3-5-5-5-5-5-5-5--------------------
E------------------------------------------------------------------

	Brothers of metal will always be there

G------------------------------------------------------------------
D------------------------------------------------------------------
A--7-7-7-7-7-7-7-7-7--3-3-3-3-3-3-5-5-5-5-5-5-5--------------------
E------------------------------------------------------------------

	Standing together with hands in the air

G------------------------------------------------------------------
D------------------------------------------------------------------
A--7-7-7-7-7-7-7-7-7--3-3-3-3-3-3-5-5-5-5-5-5-5--------------------
E------------------------------------------------------------------


	Solo.

G------------------------------------------------------------------
D--------5------------7--------------------9-7-9-------------------
A--3-3-3---3-3--5-5-5---5-5--7-7-7-7-7-7-7-------------------------
E------------------------------------------------------------------

G------------------------------------------------------------------
D--------5------------7--------------------9-7-9-------------------
A--3-3-3---3-3--5-5-5---5-5--7-7-7-7-7-7-7-------------------------
E------------------------------------------------------------------

G------------------------------------------------------------------
D--------5------------7--------------------------------------------
A--3-3-3---3-3--5-5-5---5-5--7-7-7-7-7-7-7-7-7-7-------------------
E------------------------------------------------------------------

G------------------------------------------------------------------
D------------------------------------------------------------------
A--5-5-5-5-5-5--9-9-9-9-9-9--2-2-2-2-2-2-2-2-2-2-2-2---------------
E------------------------------------------------------------------

	Let us drink to the power drink to the sound thunder and metal are shaking the ground
	
G--------------------------------------------------------------------
D-----------------------------------5-5-5-5-5-5-5-5-7-7-7-7-9-9-9-9--
A---7-7-7-7-7-7-7-7-3-3-3-3-3-3-3-3----------------------------------
E--------------------------------------------------------------------

 Drink to your brothrs who are nevar to fall we're all brothers of metal here in the hall
												(BROTHERS OF METAL)
G--------------------------------------------------------------------
D-----------------------------------5-5-5-5-5-5-5-5-7-7-7-7-9-9-9-9--
A---7-7-7-7-7-7-7-7-3-3-3-3-3-3-3-3----------------------------------
E--------------------------------------------------------------------


	We are fighting with power and still

G------------------------------------------------------------------
D------------------------------------------------------------------
A--7-7-7-7-7-7-7-7-7--3-3-3-3-3-3-5-5-5-5-5-5-5--------------------
E------------------------------------------------------------------

	Fighting for metal Metal that's real

G------------------------------------------------------------------
D------------------------------------------------------------------
A--7-7-7-7-7-7-7-7-7--3-3-3-3-3-3-5-5-5-5-5-5-5--------------------
E------------------------------------------------------------------

	Brothers of metal will always be there

G------------------------------------------------------------------
D------------------------------------------------------------------
A--7-7-7-7-7-7-7-7-7--3-3-3-3-3-3-5-5-5-5-5-5-5--------------------
E------------------------------------------------------------------

	Standing together with hands in the air

G------------------------------------------------------------------
D------------------------------------------------------------------
A--7-7-7-7-7-7-7-7-7--3-3-3-3-3-3-5-5-5-5-5-5-5--------------------
E------------------------------------------------------------------

Fade out.
End.
  development and support by
dmitry ivanov