rock
 
|tablatures   |lyrics   |discussion forums   |more tabs @ XGuitar.com

Manowar tabs

Bridge Of Death bass tab

Manowar - Bridge of death
Tabbed By: Keymaster's Bassist
Email: rammsteinherz@mail.ru

Tuning: Standard (E A D G)



Here is the bass line of "Bridge of death" by Manowar. Everything is tabbed.
End of intro (after the guitar entered) may by incomplete, I mean, some hits
of the same note can be missed.
This is the most accurate tab of this song on net.

Legend:
	x - nail clicks. Where marked, you may miss note, or you may do the nail click,
			 or you may hit open E.

Intro

G||---21-21-21-21-21-21-21-21-21-21-21-21-21-21-21-21-21-21-21-21-21-21-21-21-21
D||*----------------------------------------------------------------------------
A||*----------------------------------------------------------------------------
E||-----------------------------------------------------------------------------


                                                                       Repeat 3x
-20-20-20-20-20-20-20-20-20-20-20-20-20-20-20-20-20-20-20-20-20-20-20-20-20-20-|
------------------------------------------------------------------------------*|
------------------------------------------------------------------------------*|
-------------------------------------------------------------------------------|


  Then finish by this
--20-20-20-20-20-20-20-20-20-20-20-20-20-20-20-20-20-20-20-20-20-20-20-20-20-20-
--------------------------------------------------------------------------------
--------------------------------------------------------------------------------
--------------------------------------------------------------------------------


  Guitar enters
||---21-21-21--21-21-21--21-21-21--21-21-21---||
||*------------------------------------------*||
||*------------------------------------------*||
||--------------------------------------------||



|--20-20---20-20---20-20---20-20---|--20-20---20-20---20-20---20-20---|
|----------------------------------|----------------------------------|
|----------------------------------|----------------------------------|
|----------------------------------|----------------------------------|



|---20----20----20----20-----||
|*--------------------------*||
|*--------------------------*||
|----------------------------||

Here bass stops and guitar is leading

… 5 solo notes…

                 He calls my name
G||-------------|
D||-------------|
A||--4----4--4--|
E||-------------|
                 And waves me on
G||-------------|
D||-------------|
A||-------------|
E||--2----2--2--|

G||-----------------------|------------------------|----------||
D||-----------------------|------------------------|----------||
A||--4----4--4--0----2----|--2--2--0----4----4--4--|--2----4--||
E||-----------------------|------------------------|----------||

… 5 solo notes…

                 The fallen one
G||-------------|
D||-------------|
A||--4----4--4--|
E||-------------|
                 He stands in flame
G||-------------|
D||-------------|
A||-------------|
E||--2----2--2--|

G||-----------------------|------------------------|----------||
D||-----------------------|------------------------|----------||
A||--4----4--4--0----2----|--2--2--0----4----4--4--|--2----4--||
E||-----------------------|------------------------|----------||

Eric screams, play:

G||-------------------------------------|--------------------------------||
D||-------------------------------------|--------------------------------||
A||--4----4--4--2----4--4---------------|--4----4--4--2----4-------------||
E||--------------------------0----0--0--|---------------------0----0--0--||

G||--------------------------------------------------------||
D||--------------------------------------------------------||
A||--4----4--4--2----4-4-----------------4----4-4--2----4--||
E||-------------------------0----0--0----------------------||



Verse:
Repeat 4x
                             x    x  x                          x    x  x
G||-------------------------------------|----------------------------------||
D||*------------------------------------|----------------------------------||
A||*-4----4--4--2----4--4---------------|----------------------------------||
E||-------------------------------------|--2----2--2--0----2---------------||
	
G||-----------------------------||
D||----------------------------*||
A||--4----4--4--2----4--4----2-*||
E||-----------------------------||


Here comes he solo. Background is
								  Repeat 4x
G||-------------------------------------|----------------------------------||
D||*------------------------------------|---------------------------------*||
A||*-4----4--4--2----4--4---------------|---------------------------------*||
E||--------------------------0----0--0--|--2----2--2--0----2----0----0--0--||

G||-----||
D||-----||
A||--2--||
E||-----||
								   Repeat 2x
G||-------------------------------------|----------------------------------||
D||*------------------------------------|---------------------------------*||
A||*-4----4--4--2----4--4---------------|---------------------------------*||
E||--------------------------0----0--0--|--2----2--2--0----2----0----0--0--||

Play this for 1 time…
G||----------------------------------|-------------------------------------||
D||----------------------------------|-------------------------------------||
A||----------------------------------|--4----4--4--2----4--4---------------||
E||--2----2--2--0----2----0----0--0--|--------------------------0----0--0--||

And this
G||-------------------------------------|----------------------------------||
D||-------------------------------------|----------------------------------||
A||--4----4--4--2----4--4---------------|----------------------------------||
E||--------------------------0----0--0--|--2----2--2--0----2----0----0--0--||


Solo is over, play then:

G||-------------------||
D||-------------------||
A||----------------9--||
E||--5--5----7--5-----||

G||-------------------||
D||-------------------||
A||----------------2--||
E||--0--0----2--0-----||

G||-------------------||
D||-------------------||
A||-------------------||
E||--0--0----2--0--5--||

G||-------------------||
D||-------------------||
A||-------------------||
E||--0--0----2--0--0--||

Play the above twice, then finish with

G||--------||
D||--------||
A||--7--6--||
E||--------||

Eric enters:
		     Repeat 2x
G||---------------------------||
D||---------------------------||
A||--4--------------3----3-4--||
E||-------5----0--------------||

After that play

                             			       	      x    x  x
G||-------------------------------------|--------------------------------||
D||-------------------------------------|--------------------------------||
A||--4----4--4--2----4--4---------------|--4----4--4--2----4-------------||
E||--------------------------0----0--0--|--------------------------------||

G||--------------------------------------------------------||
D||--------------------------------------------------------||
A||--4----4--4--2----4-4-----------------4----4-4--2----4--||
E||-------------------------0----0--0----------------------||
	


Play the verse 3 times:
                             x    x  x                          x    x  x
G||-------------------------------------|----------------------------------||
D||*------------------------------------|----------------------------------||
A||*-4----4--4--2----4--4---------------|----------------------------------||
E||-------------------------------------|--2----2--2--0----2---------------||
	
G||-----------------------------||
D||----------------------------*||
A||--4----4--4--2----4--4----2-*||
E||-----------------------------||

And finish with

                             				      x    x  x
G||-------------------------------------|--------------------------------||
D||-------------------------------------|--------------------------------||
A||--4----4--4--2----4--4---------------|--4----4--4--2----4-------------||
E||--------------------------0----0--0--|--------------------------------||

G||--------------------------------------------------------||
D||--------------------------------------------------------||
A||--4----4--4--2----4-4-----------------4----4-4--2----4--||
E||-------------------------0----0--0----------------------||

That's all.
  development and support by
dmitry ivanov