rock
 
|tablatures   |lyrics   |discussion forums   |more tabs @ XGuitar.com

Manowar tabs

Blood Of The Kings guitar tab

Manowar: Blood of the Kings
Tabbed by HeXa

Standard Tuning

Intro
3x
|----------------------------------------------------------------------------|
|----------------------------------------------------------------------------|
|-----9-----7-----5-----4----------------------------------------------------|
|-----9-----7-----5-----4----------------------------------------------------|
|-----7-----5-----3-----2----------------------------------------------------|
|-0-0---0-0---0-0---0-0---0-0-0-0-0-0-0-0-0----------------------------------|

1x
|----------------------------------------------------------------------------|
|----------------------------------------------------------------------------|
|-----9-----7-----5-----4-------------------------4-4-4-4-4-4----------------|
|-----9-----7-----5-----4-----7-----5-----3-----2-4-4-4-4-4-4----------------|
|-----7-----5-----3-----2-----7-----5-----3-----2-2-2-2-2-2-2----------------|
|-0-0---0-0---0-0---0-0---0-0-5-0-0-3-0-0-1-0-0-0----------------------------|

Bass Fill
|----------------------------------------------------------------------------|
|---------------------------------------2------------------------------------|
|---------2-3-5-3-2---------------2-3-5--------------------------------------|
|-0-2-3-5-----------5-3-2-0-2-3-5--------------------------------------------|

Riff A
|----------------------------------------------------------------------------|
|----------------------------------------------------------------------------|
|----------------------------------------------------------------------------|
|-----2-----2-------2-----2--------------------------------------------------|
|-----2-----2-------2-----2--etc...listen-the-rhythm-------------------------|
|-0-0-0-0-0-0-0-0-0-0-0-0-0-0-0-0-0-0-0-0-0-0-0-0-0-0-0-0-0-0-0-0-0-0-0-0-0-0|


Fill(Guitar 1 plays Riff A)
|-------------------------------12-14-15-14-12-------------------------------|
|----------------------12-14-15----------------15-14-12----------------------|
|-------------11-12-14----------------------------------14-12-11-------------|
|----11-12-14----------------------------------------------------14-12-11----|
|-14-------------------------------------------------------------------------|
|----------------------------------------------------------------------------|

|----------------------------------------------------------------------------|
|----------------------------------------------------------------------------|
|----------------------------------------------------------------------------|
|----------------------------------------------------------------------------|
|-14-12-10-------------------------------------------------------------------|
|----------12----------------------------------------------------------------|


Riff B                                    Add 2nd time
|----0---------2------0------------------|-----------------------------------|
|----0---------4------0------------------|-----------------------------------|
|----0-----4---4------0---4--------------|-----------------------------------|
|-2--------4-------2------4--------------|-----------------------------------|
|-2--------2-------2------2--0h2-3-2-----|-2---------------------------------|
|-0----------------0-----------------5-3-|---5-3-2---------------------------|

CHORUS
|----------------------------------------------------------------------------|
|----------------------------------------------------------------------------|
|------------------5------7--9-----------------5-----7--9--5----7------------|
|------------------5--5---7--9-----------------5--5--7--9--5-5--7------------|
|------------------3--5---5--7-----------------3--5--5--7--3-5--5------------|
|-0-0-0-0-0-0-0-0-----3--------0-0-0-0-0-0-0-0----3----------3---------------|

Riff A
Riff B
Chorus
Riff A
Riff B
Chorus
Solo(Just play E and variations of Riff B)
Riff B
Chorus 2x
Intro Riff
Outro(

Solo
|----------------------------bend-trem-down-----------17(19)\/-19(22)\/------|
|-15(17)--------15(17)-------12h15p12h15p12h15p12h15-------------------------|
|----------------------------------------------------------------------------|
|----------------------------------------------------------------------------|
|----------------------------------------------------------------------------|
|---------0\------------0\---------------------------------------------------|

|-7-7h8p7----7---------------------------------------------------------------|
|---------10---8-10-8-7-7h8p7------------------------------------------------|
|-----------------------------9(11)br-8--11p8-9p8-11p8-9p8-11p8-9p8-11p8-----|
|----------------------------------------------------------------------------|
|----------------------------------------------------------------------------|
|----------------------------------------------------------------------------|

|-15--14-14--12-12--------------------------------------------------17-19(20)|
|------------------12-12-----------------------------------17-19-20----------|
|------------------------12-12-11-----------------16-17-19-------------------|
|----------------------------------------16-17-19----------------------------|
|-------------------------------------19-------------------------------------|
|----------------------------------------------------------------------------|

|-20-22-22(24)-20-22-20-19-22-20-19-20-19-17-20-19-17-19-17-15-19-17-15------|
|----------------------------------------------------------------------------|
|----------------------------------------------------------------------------|
|----------------------------------------------------------------------------|
|----------------------------------------------------------------------------|
|----------------------------------------------------------------------------|

|-17(19)-15-17-15-14-17-15-14------------------------------------------------|
|------------------------------0\(Bend-down-with-Trem)-----------------------|
|------------------------------0\--------------------------------------------|
|----------------------------------------------------------------------------|
|------------------------------------------------------2---------------------|
|--------------------------------------------------------5-5-3-3-2-2---------|

|-17(19)---------------------------------------------------------------------|
|--------17(19)---------12--------------------------------------------12(13)-|
|---------------16(18)-----14-12-----------------------------11-12-14--------|
|--------------------------------14-----------------10-12-14-----------------|
|------------------------------------------10-12-14--------------------------|
|------------------------------------12-14-----------------------------------|

|----------------------------------------------------------------------------|
|-12(13)-12(13)-12(13)-12h15p12h15p12h15p12h12\/\/\/\/\/\/-------------------|
|----------------------------------------------------------------------------|
|----------------------------------------------------------------------------|
|----------------------------------------------------------------------------|
|----------------------------------------------------------------------------|

2x
|-20p19p17-20p19p17-20p19p17-20p19p17-20p19p17-20p19p17----------------------|
|----------------------------------------------------------------------------|
|----------------------------------------------------------------------------|
|----------------------------------------------------------------------------|
|----------------------------------------------------------------------------|
|----------------------------------------------------------------------------|

|----------------------------------------------------------------------------|
|-12~-12~-13(15)(Bend-Trem-Down)--13-12--------------------------------------|
|---------------------------------------14---9-------------------------------|
|----------------------------------------------12-10--10p9-12p9-10p9-12p9----|
|----------------------------------------------------------------------------|
|----------------------------------------------------------------------------|

|----------------12-12-12-14-14-14-15-15-15-14-14-14-15-15-15-17-17-17-19----|
|----------------------------------------------------------------------------|
|----------------------------------------------------------------------------|
|-10p9-12p9-9~---------------------------------------------------------------|
|----------------------------------------------------------------------------|
|----------------------------------------------------------------------------|

Outro
|----------------------------------------------------------------------------|
|----------------------------------------------------------------------------|
|----------------------------------------------------------------------------|
|---------------------------faster->-----------------------------------------|
|-2-2-2-2-2-2-2-2--2-3---2-3---2-3---2-3---2-3---2-3---2-3---2-3---2-3---2-3-|
|----------------------5-----5-----5-----5-----5-----5-----5-----5-----5----5|

(Here is the Bass playing part)
|----------------------------------------------------------------------------|
|----------------------------------------------------------------------------|
|----------------------------------------------------------------------------|
|----------------------------------------------------------------------------|
|----------------------------------------------------------------------------|
|-0-0-0-0-0-0-0-0-0-0-0-0-0-0-0-0-0-0-0-0-0-0-0-0-0-0-0-0-0-0-0-0-0-0-0-0-0-0|

Play Intro very Slowly

(Use Whammy Bar to make all the noises backround)
|----------------------------------------------------------------------------|
|----------------------------------------------------------------------------|
|----------------------------------------------------------------------------|
|----------------------------------------------------------------------------|
|-2-2-2-2-2-2-2-2-2-2-2-2-2-2-2-2-2-2-2-2-2-2-2-2-2-2-2-2-2-2-2-2-2-2-2-2-2-2|
|----------------------------------------------------------------------------|

|----------------------------------------------------------------------------|
|----------------------------------------------------------------------------|
|----4-----4-----4-----4-----------------------------------------------------|
|-2--4--2--4--2--4--2--4-----------------------------------------------------|
|-2--2--2--2--2--2--2--2-2-2-2-2-2-2-2-2-2-2-2-2-2-2-2-2-2-------------------|
|-0-----0-----0-----0--------------------------------------------------------|

Play Riff A many Times...
  development and support by
dmitry ivanov