rock
 
|tablatures   |lyrics   |discussion forums   |more tabs @ XGuitar.com

Manowar tabs

Blood Of My Enemies guitar tab

Manowar: Blood of My Enemies(Hail to England)
Tabbed by HeXa(Heikki.Mustonen@kymp.net)

Standard Tuning

Intro N.H----    N.H-------
|4x---12----------12---------|------------------------------------------------|
|---------------------7--5---|------------------------------------------------|
|--------7-5-----------------|------------------------------------------------|
|----------------------------|------------------------------------------------|
|----------------------------|------------------------------------------------|
|-2-3----------3-2-----------|--0-0-0-0-0-0-0-0-0-0-0-0-0-0-0-0-0-0-0-0-0-0-0-|

2x
|----------------------------------------------------------------------------|
|----------------------------------------------------------------------------|
|-5-7-9-------------9-------------9-------------9----------------------------|
|-5-7-9-------------9-------------9-------------9----------------------------|
|-3-5-7-------------7-------------7-------------7----------------------------|
|-------0-0-0-0-0-0---0-0-0-0-0-0---0-0-0-0-0-0------------------------------|

Riff B
|----------------------------------------------------------------------------|
|----------------------------------------------------------------------------|
|-9-------------9-------------9-------------9-------------9------------------|
|-9-------------9-------------9-------------9-------------9------------------|
|-7-------------7-------------7-------------7-------------7------------------|
|---0-0-0-0-0-0---0-0-0-0-0-0---0-0-0-0-0-0---0-0-0-0-0-0---0-0-0-0-0-0------|

|----------------------------------------------------------------------------|
|----------------------------------------------------------------------------|
|-9-------------9-------------9-------------5--5--5--5--5--5--5--------------|
|-9-------------9-------------9-------------5--5--5--5--5--5--5--------------|
|-7-------------7-------------7-------------3--3--3--3--3--3--3--------------|
|---0-0-0-0-0-0---0-0-0-0-0-0---0-0-0-0-0-0----------------------------------|

|----------------------------------------------------------------------------|
|----------------------------------------------------------------------------|
|-5-7-9-------------9-------------9-----------9-------------5--5--5--5--5--5-|
|-5-7-9-------------9-------------9-----------9-------------5--5--5--5--5--5-|
|-3-5-7-------------7-------------7-----------7-------------3--3--3--3--3--3-|
|-------0-0-0-0-0-0---0-0-0-0-0-0---0-0-0-0-0---0-0-0-0-0-0------------------|

|----------------------------------------------------------------------------|
|----------------------------------------------------------------------------|
|-5--5-7-9-------------9-------------9-------------9-------------5--5--5--5--|
|-5--5-7-9-------------9-------------9-------------9-------------5--5--5--5--|
|-3--3-5-7-------------7-------------7-------------7-------------3--3--3--3--|
|----------0-0-0-0-0-0---0-0-0-0-0-0---0-0-0-0-0-0---0-0-0-0-0-0-------------|

|----------------------------------------------------------------------------|
|----------------------------------------------------------------------------|
|-5--5--5--5-7-9-------------9-------------9-------------9-------------5--5--|
|-5--5--5--5-7-9-------------9-------------9-------------9-------------5--5--|
|-3--3--3--3-5-7-------------7-------------7-------------7-------------3--3--|
|----------------0-0-0-0-0-0---0-0-0-0-0-0---0-0-0-0-0-0---0-0-0-0-0-0-------|

|----------------------------------------------------------------------------|
|----------------------------------------------------------------------------|
|-5--5--5--5--5--5-7-9-------------9-------------9-------------9-------------|
|-5--5--5--5--5--5-7-9-------------9-------------9-------------9-------------|
|-3--3--3--3--3--3-5-7-------------7-------------7-------------7-------------|
|----------------------0-0-0-0-0-0---0-0-0-0-0-0---0-0-0-0-0-0---0-0-0-0-0-0-|

Chorus
|----------------------------------------------------------------------------|
|----------------------------------------------------------------------------|
|--------7-------5--4--7--9-------------9--7--5--4--5--7--9------------------|
|-----5--7--2--5-5--4--7--9-------------9--7--5--4--5--7--9------------------|
|-----5--5--2--5-3--2--5--7-------------7--5--3--2--3--5--7------------------|
|-0-2-3-----0--3------------0-0-0-0-0-0--------------------------------------|



Fill (Play this after the first chorus)
|----------------------------------------------------------------------------|
|----------------------------------------------------------------------------|
|----------------------------------------------------------------------------|
|----------------------------------------------------------------------------|
|----------------------------------------------------------------------------|
|-0-0-0-0-0-0-0-0-00-0-0-0-0-0-0-0-0\----------------------------------------|

Then Play 

|----------------------------------------------------------------------------|
|----------------------------------------------------------------------------|
|-9--------------9-------------9-------------9-------------------------------|
|-9--------------9-------------9-------------9-------------------------------|
|-7--------------7-------------7-------------7-------------------------------|
|---0-0-0-0-0-0----0-0-0-0-0-0---0-0-0-0-0-0---0-0-0-0-0-0-------------------|

|----------------------------------------------------------------------------|
|----------------------------------------------------------------------------|
|-9-------------9-------------9-------------9-------------9------------------|
|-9-------------9-------------9-------------9-------------9------------------|
|-7-------------7-------------7-------------7-------------7------------------|
|---0-0-0-0-0-0---0-0-0-0-0-0---0-0-0-0-0-0---0-0-0-0-0-0---0-0-0-0-0-0------|

|----------------------------------------------------------------------------|
|----------------------------------------------------------------------------|
|-9-------------9-------------9-------------5--5--5--5--5--5--5--------------|
|-9-------------9-------------9-------------5--5--5--5--5--5--5--------------|
|-7-------------7-------------7-------------3--3--3--3--3--3--3--------------|
|---0-0-0-0-0-0---0-0-0-0-0-0---0-0-0-0-0-0----------------------------------|

|----------------------------------------------------------------------------|
|----------------------------------------------------------------------------|
|-5-7-9-------------9-------------9-----------9------------------------------|
|-5-7-9-------------9-------------9-----------9------------------------------|
|-3-5-7-------------7-------------7-----------7------------------------------|
|-------0-0-0-0-0-0---0-0-0-0-0-0---0-0-0-0-0--------------------------------|

Solo

|--------12------------------------------------------------------------------|
|-15(17)----15-12----12-------------------15-12-15-12-------------------P..H--|
|-----------------14----14-12------14(16)-------------14-12-------------14---|
|-----------------------------14----------------------------14-12-14-12------|
|----------------------------------------------------------------------------|
|----------------------------------------------------------------------------|

|-----------------------------------------------------15-12h15p12h15-12-15-12|
|----------------------------------------------15(17)------------------------|
|-12-14-12-----------12-14-12-------14-12------------------------------------|
|----------14-12-14-----------14-12-------14---------------------------------|
|----------------------------------------------------------------------------|
|----------------------------------------------------------------------------|

|----------------------------------------------------------------------------|
|-15-12--------------------15(17)-br-12-15-12----12--------------------------|
|-------14--14(16)-br-12----------------------14----14-12-11-----------------|
|----------------------------------------------------------------------------|
|----------------------------------------------------------------------------|
|----------------------------------------------------------------------------|

|-----------------------------0-2-3-5-7-|-------------------------15(17)-12--|
|-------------------------1-3-----------|-12h15p12h15p12h15p12h15------------|
|-------------------0-2-4---------------|------------------------------------|
|-------------0-2-4---------------------|------------------------------------|
|-------0-2-3---------------------------|------------------------------------|
|-0-2-3---------------------------------|------------------------------------|

|-15-12----12----------------------------------------------------------------|
|-------15----15-12-15-12----12----15-12-15-12----12-------------------------|
|-------------------------14----14-------------14----14-12----12-14(16)------|
|----------------------------------------------------------14----------------|
|----------------------------------------------------------------------------|
|----------------------------------------------------------------------------|

|-----------------------------22(24)-22(24)-22(24)---------------------------|
|-22(24)-22(24)-22(24)-22(24)------------------------12-13-12-13----13-12----|
|----------------------------------------------------------------14-------14-|
|----------------------------------------------------------------------------|
|----------------------------------------------------------------------------|
|----------------------------------------------------------------------------|

|--------------------------------------------------------------------12------|
|-12-------------------------------------15--------------------------N.H-----|
|----14-12-11-14-12-11----11-12-14-14(16)---14-12----12-14-12-14(16)---------|
|----------------------14-------------------------14-------------------------|
|----------------------------------------------------------------------------|
|----------------------------------------------------------------------------|

Solo Backround
|----------------------------------------------------------------------------|
|----------------------------------------------------------------------------|
|-9-------------9-------------9-------------9-------------9------------------|
|-9-------------9-------------9-------------9-------------9------------------|
|-7-------------7-------------7-------------7-------------7------------------|
|---0-0-0-0-0-0---0-0-0-0-0-0---0-0-0-0-0-0---0-0-0-0-0-0---0-0-0-0-0-0------|

|----------------------------------------------------------------------------|
|----------------------------------------------------------------------------|
|-9-------------9-------------9-------------5--5--5--5--5--5--5--------------|
|-9-------------9-------------9-------------5--5--5--5--5--5--5--------------|
|-7-------------7-------------7-------------3--3--3--3--3--3--3--------------|
|---0-0-0-0-0-0---0-0-0-0-0-0---0-0-0-0-0-0----------------------------------|

|----------------------------------------------------------------------------|
|----------------------------------------------------------------------------|
|-5-7-9-------------9-------------9-----------9-------------5--5--5--5--5--5-|
|-5-7-9-------------9-------------9-----------9-------------5--5--5--5--5--5-|
|-3-5-7-------------7-------------7-----------7-------------3--3--3--3--3--3-|
|-------0-0-0-0-0-0---0-0-0-0-0-0---0-0-0-0-0---0-0-0-0-0-0------------------|

|----------------------------------------------------------------------------|
|----------------------------------------------------------------------------|
|-5--5-7-9-------------9-------------9-------------9-------------------------|
|-5--5-7-9-------------9-------------9-------------9-------------------------|
|-3--3-5-7-------------7-------------7-------------7-------------------------|
|----------0-0-0-0-0-0---0-0-0-0-0-0---0-0-0-0-0-0---------------------------|

Play Chorus 4x

Bass Fill(Play this at the Second Chorus)
|-------------------9-9-9----------------------------------------------------|
|-------5-5-5-9-9-9----------------------------------------------------------|
|-7-7-7----------------------------------------------------------------------|
|----------------------------------------------------------------------------|

Guitar Fill(Play this at the end of second chorus)
|----------------------------------------------------------------------------|
|----------------------------------------------------------------------------|
|-14(16)br-12-14/16-14-12-----12~--------------------------------------------|
|-------------------------14-------------------------------------------------|
|----------------------------------------------------------------------------|
|----------------------------------------------------------------------------|

Guitar Fill (Play this at the third Chorus)
|-17(19)-17(19)--15-----17(19)-----------------------------------------------|
|-------------------17-------------------------------------------------------|
|----------------------------------------------------------------------------|
|----------------------------------------------------------------------------|
|----------------------------------------------------------------------------|
|----------------------------------------------------------------------------|

Guitar Fill (Play this at the end of Third Chorus)
|----------------------------------------------------------------------------|
|-15--------15--------15--------15-------------------------------------------|
|----14(16)----14(16)----14(16)----14(16)~-----------------------------------|
|----------------------------------------------------------------------------|
|----------------------------------------------------------------------------|
|----------------------------------------------------------------------------|

Guitar Fill (Play this at the Fourth Chorus)
|----------------------12~---------------------------------------------------|
|-------8-8-8-12-12-12-------------------------------------------------------|
|-9-9-9----------------------------------------------------------------------|
|----------------------------------------------------------------------------|
|----------------------------------------------------------------------------|
|----------------------------------------------------------------------------|

Guitar Fill(Play this at the end of Fourth Chorus)
|----------------8-----------------------------------------------------------|
|--------------8-------------------------------------------------------------|
|------------9---------------------------------------------------------------|
|---------10-------------5---7---9-------------------------------------------|
|----7-10----------------3---5---7-------------------------------------------|
|--8-----------------------------0-------------------------------------------|
  development and support by
dmitry ivanov