rock
 
|tablatures   |lyrics   |discussion forums   |more tabs @ XGuitar.com

Manowar tabs

Blood Of My Enemies bass tab

Author/Artist: MANOWAR
Title: Blood Of My Enemies
Album: Hail to England
Transcribed by: Paulo Canha
Email: pcanha@telepar.com.br

This is one of the best songs from the Kings of Metal.
This is what I think about this song, any corrects, e-mail me. 




Intro
G------------------------------------
D------------------------------------
A-2-3----3-2---2-3---3-2---2-3---3-2-
E------------------------------------
                                                                              
-------------------------------------------------------------------
-------------------------------------------------------------------
-3-5-7---------------7--------------7--------------7---------------
--------0-0-0-0-0-0----0-0-0-0-0-0----0-0-0-0-0-0------0-0-0-0-0-0-
                                                                              

-------------------------------------------------------------------
-------------------------------------------------------------------
-3-5-7---------------7--------------7--------------7---------------
--------0-0-0-0-0-0----0-0-0-0-0-0----0-0-0-0-0-0------0-0-0-0-0-0-                                                                               
                                                                              

Vocals enter
---------------------------------------------------------------
---------------------------------------------------------------
-7--------------7--------------7---------------7---------------
----0-0-0-0-0-0----0-0-0-0-0-0----0-0-0-0-0-0------0-0-0-0-0-0-
                                                                              

---------------------------------------------------------------
---------------------------------------------------------------
-7--------------7--------------7---------------7---------------
----0-0-0-0-0-0----0-0-0-0-0-0----0-0-0-0-0-0------0-0-0-0-0-0-
                                                                              

-5-5-5-5-5-5-5---------------------------------------------------------
-5-5-5-5-5-5-5---------------------------------------------------------
-3-3-3-3-3-3-3---3-5-7---------------7---------------7---------------7-
------------------------0-0-0-0-0-0------0-0-0-0-0------0-0-0-0-0-0----
                                                                              

-------------5-5-5-5-5-5-5------------------------------------------
-------------5-5-5-5-5-5-5------------------------------------------
-------------3-3-3-3-3-3-3---3-5-7---------------7----------------7-
-0-0-0-0-0-0-----------------------0-0-0-0-0-0-----0-0-0-0-0-0------


----------------------------5-5-5-5-5-5-5-------------------------------------
----------------------------5-5-5-5-5-5-5-------------------------------------
-------------7--------------3-3-3-3-3-3-3---3-5-7---------------7-------------
-0-0-0-0-0-0---0-0-0-0-0-0-------------------------0-0-0-0-0-0----0-0-0-0-0-0-
           

-----------------------------5-5-5-5-5-5-5------------------------------------
-----------------------------5-5-5-5-5-5-5------------------------------------
-7-------------7-------------3-3-3-3-3-3-3---3-5-7---------------7------------
---0-0-0-0-0-0---0-0-0-0-0-0------------------------0-0-0-0-0-0-----0-0-0-0-0-


-----------------------------
-----------------------------
-7-------------7-------------
---0-0-0-0-0-0---0-0-0-0-0-0-


Chorus
-----------------------------------------------------------
-----------------------------------------------------------
--------5---7---5---3---2---7---------7--------7---------7-
-0-2-3-------------------------0-0-0-----0-0-0----0-0-0----
                                                                              
                                                             End chorus
---------------------------------------------------------------------------
---------------------------------------------------------------------------
---------5---7---2--0--5---7----------7--------7---------7--------7--------
-0-2-3-------------------------0-0-0-----0-0-0----0-0-0-----0-0-0----0-0-0-
                                                                              

---------------------------------------------------------------
---------------------------------------------------------------
-7--------------7--------------7---------------7---------------
----0-0-0-0-0-0----0-0-0-0-0-0----0-0-0-0-0-0------0-0-0-0-0-0-
                                                                              
Vocals enter
---------------------------------------------------------------
---------------------------------------------------------------
-7--------------7--------------7---------------7---------------
----0-0-0-0-0-0----0-0-0-0-0-0----0-0-0-0-0-0------0-0-0-0-0-0-
                                                                              

---------------------------------------------------------------
---------------------------------------------------------------
-7--------------7--------------7---------------7---------------
----0-0-0-0-0-0----0-0-0-0-0-0----0-0-0-0-0-0------0-0-0-0-0-0-
                                                                              

-5-5-5-5-5-5-5--------------------------------------------------------
-5-5-5-5-5-5-5--------------------------------------------------------
-3-3-3-3-3-3-3---3-5-7---------------7---------------7--------------7-
------------------------0-0-0-0-0-0------0-0-0-0-0------0-0-0-0-0-0-0-

Solo
---------------------------------------------------------------
---------------------------------------------------------------
-7--------------7--------------7---------------7---------------
-0--0-0-0-0-0-0----0-0-0-0-0-0----0-0-0-0-0-0------0-0-0-0-0-0-
                                                                              

---------------------------------------------------------------
---------------------------------------------------------------
-7--------------7--------------7---------------7---------------
----0-0-0-0-0-0----0-0-0-0-0-0----0-0-0-0-0-0------0-0-0-0-0-0-
                                                                              


-5-5-5-5-5-5-5---------------------------------------------------------
-5-5-5-5-5-5-5---------------------------------------------------------
-3-3-3-3-3-3-3---3-5-7---------------7---------------7---------------7-
------------------------0-0-0-0-0-0------0-0-0-0-0------0-0-0-0-0-0----
                                                                              

-------------5-5-5-5-5-5-5------------------------------------------
-------------5-5-5-5-5-5-5------------------------------------------
-------------3-3-3-3-3-3-3---3-5-7---------------7----------------7-
-0-0-0-0-0-0-----------------------0-0-0-0-0-0-----0-0-0-0-0-0------


---------------
---------------
-------------7-
-0-0-0-0-0-0---


Repeat chorus 3X and at the end
---------------------7-----------
-----------7--9--10--------------
-7--9--10------------------3-5-7-
-------------------------------0-
  development and support by
dmitry ivanov