rock
 
|tablatures   |lyrics   |discussion forums   |more tabs @ XGuitar.com

Manowar tabs

Army Of The Immortals bass tab

G||-------------------|--------------------|-------------------|
D||-------------------|--------------------|-------------------|
A||--0----------------|--------------------|-------------------|
E||-------------------|----------3----2----|--1----------------|



-----------------------|-------------------|--------------------|
-----------------------|-------------------|--------------------|
------------------2----|--0----------------|--------------------|
--0--4----4--5---------|-------------------|----------3----2----|



-------------------|-----------------------|-------------------|
-------------------|-----------------------|-------------------|
-------------------|------------------2----|--0----------------|
--1----------------|--0--4----4--5---------|-------------------|



--------------------|-------------------------|-----------------------|
--------------------|-------------------------|-----------------------|
--------------------|-------------------------|-----------------------|
----------3----2----|--1----1--1--1--1--1--1--|--0--------0--0--0--0--|



-------------------------|------------------------|--------------------------|
-------------------------|------------------------|--------------------------|
--0----0--0--0--0--0--0--|--0--0--0--0------------|--------------------------|
-------------------------|--------------3----2----|--1--1--1--1--1--1--1--1--|



-----------------------|--------------------------|------------------------|
-----------------------|--------------------------|------------------------|
------------------2----|--0--0--0--0--0--0--0--0--|--0--0--0--0------------|
--0--4----4--5---------|--------------------------|--------------3----2----|



--------------------------|-----------------------|--2----------------------|
--------------------------|-----------------------|--0----0--0--0--0--0--0--|
--------------------------|------------------2----|-------------------------|
--1--1--1--1--1--1--1--1--|--0--4----4--5---------|-------------------------|



---------------------|--------------------------|---------------------|
---------------------|--------------------------|---------------------|
--0------------------|--------------------------|--0------------------|
---------3------1----|--0--0--0--0--0--0--0--0--|---------3------1----|



--2----------------------|---------------------|--------------------------|
--0----0--0--0--0--0--0--|---------------------|--------------------------|
-------------------------|--0------------------|--------------------------|
-------------------------|---------3------1----|--0--0--0--0--0--0--0--0--|



---------2------4----|-----------------------|--------------------------|
--2------------------|-----------------------|-----------------------2--|
---------------------|--0------0--0----0--2--|--3--2--0-----0--2--3-----|
---------------------|-----------------------|-----------3--------------|



--------------------|--------------------|-----------------------|
--------------------|--------------------|-----------------------|
--5--------3--------|--2-----------------|--0------0--0----0--2--|
--------------------|-----------3--------|-----------------------|



--------------------------|--------------------|--------------------|
-----------------------2--|--------------------|--------------------|
--3--2--0-----0--2--3-----|--5--------3--------|--2-----------------|
-----------3--------------|--------------------|-----------3--------|



-----------------------|--------------------------|--------------------|
-----------------------|-----------------------2--|--------------------|
--0------0--0----0--2--|--3--2--0-----0--2--3-----|--5--------3--------|
-----------------------|-----------3--------------|--------------------|



--------------------|-----------------------|--------------------------|
--------------------|-----------------------|-----------------------2--|
--2-----------------|--0------0--0----0--2--|--3--2--0-----0--2--3-----|
-----------3--------|-----------------------|-----------3--------------|



--------------------|--------------------|--------------------------|
--------------------|--------------------|--------------------------|
--5--------3--------|--2-----------------|--0--0--0--0--0--0--0--0--|
--------------------|-----------3--------|--------------------------|



------------------------|--------------------------|-----------------------|
------------------------|--------------------------|-----------------------|
--0--0--0--0------------|--------------------------|------------------2----|
--------------3----2----|--1--1--1--1--1--1--1--1--|--0--4----4--5---------|



--------------------------|------------------------|--------------------------|
--------------------------|------------------------|--------------------------|
--0--0--0--0--0--0--0--0--|--0--0--0--0------------|--------------------------|
--------------------------|--------------3----2----|--1--1--1--1--1--1--1--1--|



-----------------------|--------------------------|------------------------|
-----------------------|--------------------------|------------------------|
------------------2----|--0--0--0--0--0--0--0--0--|--0--0--0--0------------|
--0--4----4--5---------|--------------------------|--------------3----2----|



--------------------------|-----------------------|--------------------------|
--------------------------|-----------------------|--------------------------|
--------------------------|------------------2----|--0--0--0--0--0--0--0--0--|
--1--1--1--1--1--1--1--1--|--0--4----4--5---------|--------------------------|



------------------------|--------------------------|-----------------------|
------------------------|--------------------------|-----------------------|
--0--0--0--0------------|--------------------------|------------------2----|
--------------3----2----|--1--1--1--1--1--1--1--1--|--0--4----4--5---------|



--------------------------|------------------------|--------------------------|
--------------------------|------------------------|--------------------------|
--0--0--0--0--0--0--0--0--|--0--0--0--0------------|--------------------------|
--------------------------|--------------3----2----|--1--1--1--1--1--1--1--1--|



-----------------------|--------------------------|------------------------|
-----------------------|--------------------------|------------------------|
------------------2----|--0--0--0--0--0--0--0--0--|--0--0--0--0------------|
--0--4----4--5---------|--------------------------|--------------3----2----|



--------------------------|-----------------------|--2----------------------|
--------------------------|-----------------------|--0----0--0--0--0--0--0--|
--------------------------|------------------2----|-------------------------|
--1--1--1--1--1--1--1--1--|--0--4----4--5---------|-------------------------|



---------------------|--------------------------|---------------------|
---------------------|--------------------------|---------------------|
--0------------------|--------------------------|--0------------------|
---------3------1----|--0--0--0--0--0--0--0--0--|---------3------1----|



--2----------------------|---------------------|--------------------------|
--0----0--0--0--0--0--0--|---------------------|--------------------------|
-------------------------|--0------------------|--------------------------|
-------------------------|---------3------1----|--0--0--0--0--0--0--0--0--|



---------2------4----|-----------------------|--------------------------|
--2------------------|-----------------------|-----------------------2--|
---------------------|--0------0--0----0--2--|--3--2--0-----0--2--3-----|
---------------------|-----------------------|-----------3--------------|



--------------------|--------------------|-----------------------|
--------------------|--------------------|-----------------------|
--5--------3--------|--2-----------------|--0------0--0----0--2--|
--------------------|-----------3--------|-----------------------|



--------------------------|--------------------|--------------------|
-----------------------2--|--------------------|--------------------|
--3--2--0-----0--2--3-----|--5--------3--------|--2-----------------|
-----------3--------------|--------------------|-----------3--------|



-----------------------|--------------------------|--------------------|
-----------------------|-----------------------2--|--------------------|
--0------0--0----0--2--|--3--2--0-----0--2--3-----|--5--------3--------|
-----------------------|-----------3--------------|--------------------|



--------------------|-----------------------|--------------------------|
--------------------|-----------------------|-----------------------2--|
--2-----------------|--0------0--0----0--2--|--3--2--0-----0--2--3-----|
-----------3--------|-----------------------|-----------3--------------|



--------------------|--------------------|--------------------------|
--------------------|--------------------|--------------------------|
--5--------3--------|--2-----------------|--0--0--0--0--0--0--0--0--|
--------------------|-----------3--------|--------------------------|



------------------------|--------------------------|-----------------------|
------------------------|--------------------------|-----------------------|
--0--0--0--0------------|--------------------------|------------------2----|
--------------3----2----|--1--1--1--1--1--1--1--1--|--0--4----4--5---------|



--------------------------|------------------------|--------------------------|
--------------------------|------------------------|--------------------------|
--0--0--0--0--0--0--0--0--|--0--0--0--0------------|--------------------------|
--------------------------|--------------3----2----|--1--1--1--1--1--1--1--1--|



-----------------------|--------------------------|------------------------|
-----------------------|--------------------------|------------------------|
------------------2----|--0--0--0--0--0--0--0--0--|--0--0--0--0------------|
--0--4----4--5---------|--------------------------|--------------3----2----|



--------------------------|-----------------------|--------------------------|
--------------------------|-----------------------|--------------------------|
--------------------------|------------------2----|--0--0--0--0--0--0--0--0--|
--1--1--1--1--1--1--1--1--|--0--4----4--5---------|--------------------------|



------------------------|--------------------------|-----------------------|
------------------------|--------------------------|-----------------------|
--0--0--0--0------------|--------------------------|------------------2----|
--------------3----2----|--1--1--1--1--1--1--1--1--|--0--4----4--5---------|



--2----------------------|---------------------|--------------------------|
--0----0--0--0--0--0--0--|---------------------|--------------------------|
-------------------------|--0------------------|--------------------------|
-------------------------|---------3------1----|--0--0--0--0--0--0--0--0--|



---------------------|--2----------------------|---------------------|
---------------------|--0----0--0--0--0--0--0--|---------------------|
--0------------------|-------------------------|--0------------------|
---------3------1----|-------------------------|---------3------1----|



--------------------------|---------2------4----|-----------------------|
--------------------------|--2------------------|-----------------------|
--------------------------|---------------------|--0------0--0----0--2--|
--0--0--0--0--0--0--0--0--|---------------------|-----------------------|



--------------------------|--------------------|--------------------|
-----------------------2--|--------------------|--------------------|
--3--2--0-----0--2--3-----|--5--------3--------|--2-----------------|
-----------3--------------|--------------------|-----------3--------|



-----------------------|--------------------------|--------------------|
-----------------------|-----------------------2--|--------------------|
--0------0--0----0--2--|--3--2--0-----0--2--3-----|--5--------3--------|
-----------------------|-----------3--------------|--------------------|



--------------------|-----------------------|--------------------------|
--------------------|-----------------------|-----------------------2--|
--2-----------------|--0------0--0----0--2--|--3--2--0-----0--2--3-----|
-----------3--------|-----------------------|-----------3--------------|



--------------------|--------------------|-----------------------|
--------------------|--------------------|-----------------------|
--5--------3--------|--2-----------------|--0------0--0----0--2--|
--------------------|-----------3--------|-----------------------|



--------------------------|--------------------|--------------------|
-----------------------2--|--------------------|--------------------|
--3--2--0-----0--2--3-----|--5--------3--------|--2-----------------|
-----------3--------------|--------------------|-----------3--------|



--------------------------|------------------------|--------------------------|
--------------------------|------------------------|--------------------------|
--0--0--0--0--0--0--0--0--|--0--0--0--0------------|--------------------------|
--------------------------|--------------3----2----|--1--1--1--1--1--1--1--1--|



-----------------------|--------------------------|------------------------|
-----------------------|--------------------------|------------------------|
------------------2----|--0--0--0--0--0--0--0--0--|--0--0--0--0------------|
--0--4----4--5---------|--------------------------|--------------3----2----|



--------------------------|-----------------------|--------------------------|
--------------------------|-----------------------|--------------------------|
--------------------------|------------------2----|--0--0--0--0--0--0--0--0--|
--1--1--1--1--1--1--1--1--|--0--4----4--5---------|--------------------------|



------------------------|--------------------------|-----------------------|
------------------------|--------------------------|-----------------------|
--0--0--0--0------------|--------------------------|------------------2----|
--------------3----2----|--1--1--1--1--1--1--1--1--|--0--4----4--5---------|



--------------------------|------------------------|--------------------------|
--------------------------|------------------------|--------------------------|
--0--0--0--0--0--0--0--0--|--0--0--0--0------------|--------------------------|
--------------------------|--------------3----2----|--1--1--1--1--1--1--1--1--|



-----------------------|-----------------------||
-----------------------|-----------------------||
------------------2----|--0--0--0--0--0--------||
--0--4----4--5---------|-----------------------||
  development and support by
dmitry ivanov