rock
 
|tablatures   |lyrics   |discussion forums   |more tabs @ XGuitar.com

Manowar tabs

Animal guitar tab

ANIMAL - By ManOwaR
Tabbed by Nightwolf
Verse Riff
B5 ------ D5 ------ F# ------- B5 ------ G5 -------D5-------- A5 D5 D5 A5 - - A5 D5 D5 A5
Chorus
D5 -------A5 ------- B5 ----------
G5 ------ A5 -------- B5 ---------
O.k. I know its tabbed pretty shittlily but it gives a rough Idea on how to play the song.
Any additions corrections are warmly welcomed at:
asutrans@ozemail.com.au

Manowar: Animals solo(Sign of the Hammer)
Transcribed by HeXa(Heikki.Mustonen@kymp.net)

Standard Tuning


|-------7-7-------7-7------7---10-7-----------------------10-7--------10-7---|
|-------7-7-------7-7------7--------10-7-----------------------10-7--------10|
|--9(11)----9(11)-----9(11)--------------9-7---7-9(11)--------------9--------|
|--------------------------------------------9-------------------------------|
|----------------------------------------------------------------------------|
|----------------------------------------------------------------------------|

|------10-7--------10(12)-10(12)-7-10-7--------------------------------------|
|-7---------10-7------------------------10-7---7-----------------------------|
|---9------------9---------------------------9---9-7-------------------------|
|----------------------------------------------------9-7-9-7-----------------|
|-------------------------------------------------------------9-7-5-4-5-7-9--|
|----------------------------------------------------------------------------|

|---------------------------------|-------7-7-------7-----7-9-10-9-7----10-9-|
|---------------------------------|-------7-7-------7----------------10------|
|-------6h7p6h7p6h7p6---6h7p6h7---|-9(11)-----9(11)--------------------------|
|-5-7-9---------------9---------9-|------------------------------------------|
|---------------------------------|------------------------------------------|
|---------------------------------|------------------------------------------|

|-7----10-9-7----10-9-10-9-7----10-9-10-9-7------12(14)-10-12----------------|
|---10--------10-------------10-------------10----------------12-------------|
|----------------------------------------------------------------------------|
|----------------------------------------------------------------------------|
|----------------------------------------------------------------------------|
|----------------------------------------------------------------------------|

|--17(19)-14-17----14-----------------------------------14--------19-14------|
|---------------17----17-14--------------------------14----17-14--------17---|
|---------------------------16-14----14-------16(18)-------------------------|
|---------------------------------16----16-14--------------------------------|
|----------------------------------------------------------------------------|
|----------------------------------------------------------------------------|

|-19-14----19-14-------------------------------------------------------------|
|-------17-------17----------------------------------------------------------|
|-----------------------16---------...fade-out-------------------------------|
|----------------------------------------------------------------------------|
|----------------------------------------------------------------------------|
|----------------------------------------------------------------------------|
  development and support by
dmitry ivanov