rock
 
|tablatures   |lyrics   |discussion forums   |more tabs @ XGuitar.com

Manowar tabs

All Men Play On Ten guitar tab

Manowar: All Men Play on 10 (Sign of the Hammer)
Transcribed by HeXa(Heikki.Mustonen@kymp.net)

Standard Tuning

Comment: I'm not sure about the Riff 2, that if there is 2 guitars. This must
be the hardest tab I've ever transcribed.

Intro 4x
|----------------------------------------------------------------------------|
|----------------------------------------------------------------------------|
|-----9-9-9/12---9--7--9-----------------------------------------------------|
|-----9-9-9/12---9--7--9-----------------------------------------------------|
|-----7-7-7/10---7--5--7-----------------------------------------------------|
|--0-0-----------------------------------------------------------------------|

Solo 1
|-------------------------------------------------------------12-------------|
|-----------------------------------15(17)-/\/\/-------15(17)----15-12----15-|
|-14(16)-/\/\/\/\/----12-12-12-12--------------------------------------14----|
|----------------------------------------------------------------------------|
|----------------------------------------------------------------------------|
|--------------------------------------------------0\------------------------|

|----------------------------------------------------------------------------|
|-12--------12------------------------------15-12------------------------12~-|
|----14(16)----14-12-----12-14-12-11--------------14-12-11-------8~--11~-----|
|--------------------14--------------14-----------------------9~-------------|
|----------------------------------------------------------------------------|
|----------------------------------------------------------------------------|

Solo 1 Rhythm is Either C - D, A - G - A, C - D  E
or C - D, B - A - B, C - D  E
Played with the same rhythm as in intro
Play the rhythm 2x and add B - D# - F# - B(See the Riff 2)

Riff 1 
|Play-this-at-end-of-the"sentence"-------------------------------------------|
|3x------------|1x-----------------------------------------------------------|
|--9--7--9-----|---9--9------------------------------------------------------|
|--9--7--9-----|---9--9------------------------------------------------------|
|--7--5--7-----|---7--7------------------------------------------------------|
|--------------|-------------------------------------------------------------|

Riff 2 2x
|(The Rhythm-is-same-as-Solo-1-Rhythm)-|1x-----------------------------------|
|Played-with-a-slide-2x----------------|-------------------------------------|
|g1-5----/14--/16---------5----2\------|-4----8----11--16--------------------|
|--------------------------------------|-------------------------------------|
|g2-3----/12--/14---------3----0\------|-2----6----9---14--------------------|
|--------------------------------------|-------------------------------------|

Chorus 4x
|---------------------------12-----12----------------------------------------|
|---------------------------15(17)-15(17)------------------------------------|
|-----9-9-9/12---9--7--9-----------------------------------------------------|
|-----9-9-9/12---9--7--9-----------------------------------------------------|
|-----7-7-7/10---7--5--7-----------------------------------------------------|
|--0-0-----------------------------------------------------------------------|

Play Riff 1

Play Riff 2

Play Chorus

Solo 2(Guitar 2 plays nothing)
|----------------------------------------------------------------------------|
|----------------------------------------------------------------------------|
|-----------------------------------------2(4)--7(9)---12~-------------------|
|-2p0h2p0h2p0h2p0h2p0h2p0h2p0h2p0h2p0h2p0------------------------------------|
|----------------------------------------------------------------------------|
|----------------------------------------------------------------------------|

|----------------------------------------------------------------------------|
|-15(bend-down)/\/\/\//\---/-\-----------------------------------------------|
|---------------------------------2(4)-2(4)-2(4)-0-2-0---0-------------------|
|------------------------------------------------------2---2-0-2-0---0-------|
|------------------------------------------------------------------2---2-0-0-|
|----------------------------------------------------------------------------|

|-------------|---------------------------------15(17)--20(22)---------------|
|-------------|---------15--------15--------15--------------------12--15(17)-|
|-------------|--14(16)----14(16)----14(16)----------------------------------|
|-------------|--------------------------------------------------------------|
|-2-0---------|--------------------------------------------------------------|
|-----3-5(7)--|--------------------------------------------------------------|

|----------------------------------------------------------------------------|
|-br-12-15(17)-br-12-15(17)-br-12-15(17)-------------------------------------|
|----------------------------------------------------------------------------|
|----------------------------------------------------------------------------|
|----------------------------------------------------------------------------|
|----------------------------------------------------------------------------|

Play Riff 2

Play Chorus 3x, but in the 3rd time leave the first part of the riff away
  development and support by
dmitry ivanov