rock
 
|tablatures   |lyrics   |discussion forums   |more tabs @ XGuitar.com

Manic Street Preachers tabs

You Stole The Sun From My Heart guitar tab

YOU STOLE THE SUN FROM MY HEART

[INTRO]
	E		E/A	      E		    E/A
E||---------------------------------------------------------------------||
B||---------------------------------------------------------------------||
G||---------------------------------------------------------------------||
D||--------14---14-------13--13----------14---14-------13-13-14-13------||
A||------11---11--11---12--12--14-12---11---11--11---12-----------14-12-||
E||-----0----0------0-0----0----------0----0------0-0----0--------------||


[VERSE]
	E		E/A
E||---------------------------------------------------------------------||
B||---------------------------------------------------------------------||
G||---------------------------------------------------------------------||
D||--------14---14-------13--13----------14---14-------13-13-14-13------||
A||------11---11--11---12--12--14-12---11---11--11---12-----------14-12-||
E||-----0----0------0-0----0----------0----0------0-0----0--------------||

DRINKING - WATER TO STAY THIN OR IS IT TO PURIFY I LOVE YOU ALL THE SAME 
BUT THERE'S NO - NO REAL TRUCE WITH MY FURY YOU DON'T HAVE TO BELIEVE ME I LOVE YOU ALL THE SAME 

[CHORUS]
B#5			  E5
You stole the sun from my heart
C#5	      G#5	  D5	
You stole the sun from my heart

[CHORUS]

[VERSE]
YOU HAVE - BROKEN THROUGH MY ARMOUR AND I DON'T HAVE AN ANSWER I LOVE YOU ALL THE SAME  
I PAINT - THE THINGS I WANT TO SEE BUT IT DON'T COME EASY I LOVE YOU ALL THE SAME  

[CHORUS]

[VERSE]
THINK I'M - LOST AMONGST THE UNDERGROWTH SO MUCH SO I WOKE UP I LOVE YOU ALL THE SAME  

[CHORUS]

[VERSE]
I HAVE - I'VE GOT TO STOP SMILING IT GIVES THE WRONG IMPRESSION I LOVE YOU ALL THE SAME
  development and support by
dmitry ivanov