rock
 
|tablatures   |lyrics   |discussion forums   |more tabs @ XGuitar.com

Manic Street Preachers tabs

Wattsville Blues guitar chords

Band: Manic Street Preachers
Album: Know Your Enemy
Song: Wattsville Blues
Year: 2001
Versions: 2


===========================================================================
===========================================================================
===========================================================================


Wattsville Blues -
Credit to Dezfriel and Bamsey

D#:        X-X-X-3-4-3
D#sus4:    X-X-X-3-4-4
D:         X-X-0-2-3-2
Am7:       X-0-2-0-1-0
C:         X-3-2-0-1-0
G:         3-2-0-0-3-3

VERSE : D# D#sus4 D# D repeat

Chorus : Am7 C G repeat 


===========================================================================
===========================================================================
===========================================================================


Author/Artist: Manic Street Preachers
Title: Wattsville Blues
Album: Know Your Enemy
Transcribed by: Jamie Wharton - http://www.envy.nu/manicsguitar/index.htm
Email: manics_guitar_guide@hotmail.com

These basic chords sound ok...I don't know if it'll be possible to do a decent
version of James' bass solo through the chorus on a 6-string, Ill leave it alone
for now.

Verse-
 
e-22--3--4--3--2-------------------------------------------------------------------
B-44--5--6--5--4-------------------------------------------------------------------
G-44--5--6--5--4-------------------------------------------------------------------
D-44--5--6--5--4-------------------------------------------------------------------
A-22--3--4--3--2-------------------------------------------------------------------
E-22--3--4--3--2-------------------------------------------------------------------
                                                                              
Chorus -
  
e-0--1--0--0-------------------------------------------------------------------
B-2--1--1--0-------------------------------------------------------------------
G-2--2--0--0-------------------------------------------------------------------
D-2--3--2--2-------------------------------------------------------------------
A-0--3--0--2-------------------------------------------------------------------
E-0--1--0--0-------------------------------------------------------------------
  development and support by
dmitry ivanov