rock
 
|tablatures   |lyrics   |discussion forums   |more tabs @ XGuitar.com

Manic Street Preachers tabs

This Is Yesterday bass tab

Manic Street Preachers
This is Yesterday 



Track 10 - The Holy Bible 

G-|---------------------------------------------------------------------
D-|---------2-4---------2-4---------2-4---------------------------------
A-|-----2-4---------2-4---------2-4-------(-5-)-------------------------
E-|-2-4---------2-4---------2-4-----------------------------------------
    Intro/Outro                           last note at end
 
G-|---------------------------------------------------------------------
D-|---------------------------------------------------------------------
A-|-7-7-7-7-7-7-7-7-7-7-7-7-7-7-----------------------------------------
E-|---------------------------------------------------------------------
    Verse
  
G-|---------------------------------------------------------------------
D-|---------2-2-2-2-----------------------------------------------------
A-|-4-4-0-0---------2-2-2-2-3-4-----------------------------------------
E-|---------------------------------------------------------------------
    Chorus 
   
G-|---------------------------------------------------------------------
D-|---------------------------------------------------------------------
A-|---------------------------------------------------------------------
E-|-0-0-0-0-0-0-0-0-0-0-0-0---------------------------------------------
    The bit that starts 'conservatives say'  

transcribed by Adam and Paul Firth
  development and support by
dmitry ivanov