rock
 
|tablatures   |lyrics   |discussion forums   |more tabs @ XGuitar.com

Manic Street Preachers tabs

S.Y.M.M. guitar tab

MANIC SREET PREACHERS
S.Y.M.M.
Transcribed by Fung Mak fmak@globalnet.co.uk

Riff 1
e||-14v---------------------12---14vv--|
B||---------15v-----12--15-------------|
G||------------------------------------|
D||------------------------------------|

Riff 2
e||-14v---------------------12---14~~(15)-|
B||---------15v-----12--15----------------|
G||---------------------------------------|
D||---------------------------------------|

[INTRO]
Riff 1

[VERSE 1]
Riff 1 Riff 2
The subtext of this song
Riff 1 Riff 2
I've thought about it for so long
Riff 1 Riff 2
But it's really not the thing that
Riff 1 Riff 2
People want to hear us sing

[VERSE 2]
e||-----------------------12--|
     The context of this song
		       Em
     Well i could go on and on
e||-12----------------------5------0--3-|
     But it's still unfashionable
			Em
     To believe in principles

[CHORUS] (x2)
E			A
South south Yorkshire mass murderer
	     D				E
How can you sleep at night, sleep at night

[VERSE 3] (same as verse 1)
The reason for this song
Well it may be a pointless one
But thank you Jimmy McGovern
For reminding me of what lives on

[VERSE 4] (same as verse 2)
The ending for this song
Well i haven't really thought of one
There's is nothing i could ever say
That could really take the pain away

REPEAT CHORUS x2

[OUTRO]
e||------------------------------------------------------------------------------|
B||-14b16--11b12-------------------------(14)b16-(14)b16-(14)b16-(14)b16-(14)b16-|
G||---------------12b13----------------------------------------------------------|
D||---------------------13b14r-13b14p11------------------------------------------|
A||------------------------------------------------------------------------------|
E||------------------------------------------------------------------------------|

e||---------------------------------------------------------------7-----
B||-16-16/14-14-14-14\12-12-12\10-10-10\9-9-9\7-7-7\5-5b7-----7b9---9r7-
G||---------------------------------------------------------------------
D||---------------------------------------------------------9-----------|
A||-------------------------------------------------------7-------------
E||---------------------------------------------------------------------

e||-----------------------------------------------------------14b16-12----14b16-|
B||-14b16--11b12-------------------------------------------------------14-------|
G||---------------12b13---------------------------------------------------------|
D||---------------------13b14-13-14-13-11-13-14-13-11-13-14---------------------|
A||-----------------------------------------------------------------------------|
E||-----------------------------------------------------------------------------|

e||-----------7---------------------3----0----------0-|
B||-------7b9---pb9-------------3b5------2----------0-|
G||------------------7h9-----------------2----------0-|
D||----9------------------2--5-----------2----------2-|
A||-7------------------------------------0----------2-|
E||-------------------------------------------------0-|
							upstroked chords



  development and support by
dmitry ivanov