rock
 
|tablatures   |lyrics   |discussion forums   |more tabs @ XGuitar.com

Manic Street Preachers tabs

So Why So Sad bass tab

Artist-Manic Street Preachers
Song-So Why So Sad
Album-Know Your Enemy
Bassist-Nicky Wire

Tabbed by Holly the Indie Fish indie_fish@hotmail.com

I hated this song the first time I heard it but it has
really grown on me and is great live!

Verse
G|--------|  |--------|  |--------|  |--------|
D|--------|  |--------|  |--------|  |--------|
A|-0--0-0-|  |-2--2-2-|  |-4--4-4-|  |-5--5-5-|
E|--------|x8|--------|x4|--------|x4|--------|x4


G|--------|  |--------|  |--------|  |--------|  |--------|
D|-2--2-2-|  |-4--4-4-|  |--------|  |--------|  |--------|
A|--------|  |--------|  |-0--0-0-|  |-3--3-3-|  |-0--0-0-|
E|--------|x4|--------|x4|--------|x2|--------|x2|--------|x2

Chorus
G|---------|  |---------|
D|-4-4-4-4-|  |---------|
A|---------|  |-4-4-4-4-|
E|---------|x4|---------|x4 repeat this bit then

G|---------|  |---------|  |---------|  |---------|
D|---------|  |-2-2-2-2-|  |-5-5-5-5-|  |-4-4-4-4-|
A|-2-2-2-2-|  |---------|  |---------|  |---------|
E|---------|x4|---------|x4|---------|x4|---------|
  development and support by
dmitry ivanov