rock
 
|tablatures   |lyrics   |discussion forums   |more tabs @ XGuitar.com

Manic Street Preachers tabs

She Is Suffering bass tab

Manic Street Preachers
She is Suffering 



Track 4 - The Holy Bible 

VERSE

------------------------------------------------------------------------
------------------------------------------------------------------------
----7-7-7-7-7-7-7-7--6-6-6-6-6-6-6-6--0-0-0-0-0-0-0-0--3-3-3-3-3-3-3-3--
------------------------------------------------------------------------

CHORUS

------------------------------------------------------------------------
------------------------------------------------------------------------
-------------2-2-2-2--------------------2-2-2-2--0-0--0-0--0-0--0-0-----
----3-3-3-3-----------0-0-0-0--3-3-3-3----------------------------------

Part after second chorus

------------------------------------------------------------------------
------------------------------------------------------------------------
----7--3--5--0----------------------------------------------------------
------------------------------------------------------------------------


transcribed by Richard Coombes
  development and support by
dmitry ivanov