rock
 
|tablatures   |lyrics   |discussion forums   |more tabs @ XGuitar.com

Manic Street Preachers tabs

P.C.P. guitar tab

P.C.P.

Chords

   Bb#5b9
e
B 
G  
D  9
A  9
E  6

Intro
   D5        A5(sus2)              D5        C5(maj7)
e-|---------|---------------------|---------|-----------------------|
B-|---------|---------------------|---------|------12----------12---|Repeat
G-|---------|-----9---9-----9---9-|---------|----9-----9-----9----9-|  x2
D-|-0-0--0--|-10----9----10---9---|-0-0--0--|-10----------10--------|  
A-|---------|---------------------|---------|-----------------------|

 |D5    |      |Bb#5b9 |       |B5     |       |G5     |       |

Verse 1
  The chords in verse 1 are played stacatto

 D5
 Teacher starve your child, P.C. approved
 Bb#5b9
 As long as the right words are used
 B5
 Systemised atrocity ignored
         G5
 As long as bi-lingual signs on view
 D5 
 Ten foot sign in Oxford Street be pure 
 Bb#5b9
 Be vigilant, behave
 B5
 Grey not neon, grey not real
      G5
 Life bleeds, death is your birthright


Pre-Chorus

 E5                        G5       E5            G5
 P.C. she speaks impotent, sterile, naive, blind, atheist,
         E5
 sadist, stiff-uppper lip
                        A5
 First principle of her silence


Chorus

 F   C          F      C
 P.C.P - a P.C. police victory
 F   C          F       C
 P.C.P - a P.C. phyrric victory
 F          C                F      C
 When I was young P.C. meant Police Constable 
 B5               E5
 Nowadays I can't seem to tell the difference

Verse 2

Fill 1
   Bb#5b9                 B5
e-|---------------------|----------|
B-|---7---7-----7-------|----------|
G-|-----7-------------7-|----------|
D-|----------9-----7----|-9\-------|
A-|---------------------|-9\-------|
E-|---------------------|----------|

 D5
 Liposuction for your bad mouth boy
 Bb#5b9
 Cut out your tongur effigies are sold
 B5
 Words dicoloured, bow to the bland
 G5
 Heal yourself with sinner's salt
 D5
 Doctors arrested for euthanasia
 Bb#5b9                      (fill 1)
 Kill smokers through blind vanity
 B5
 If you're fat don't get ill
 G5
 Europe's gravestone carved in plastic


Pre-Chorus: Repeat Pre-Chorus

Chorus: Repeat Chorus

Solo

 |D     |      |Bb#5  |      |Bb5    |       |G5     |       |


Pre-Chorus: Repeat Pre-Chorus

Chorus: Repeat Chorus

Outro: Repeat Verse x2

  development and support by
dmitry ivanov