rock
 
|tablatures   |lyrics   |discussion forums   |more tabs @ XGuitar.com

Manic Street Preachers tabs

Of Walking Abortion bass tab

Manic Street Preachers
Of Walking Abortion 

Track 3 - The Holy Bible 

G-|---------------------------------------------------------------------
D-|-------2-2-0-0-------------------------------------------------------
A-|---0-0---------------------------------------------------------------
E-|-3-------------------------------------------------------------------
    Verse Riff 

G-|---------------------------------------------------------------------
D-|---------------------------------------------------------------------
A-|-3-3-3-3-3-3-3-3-3-3-1-1-1-1-1-1-1-1---------------------------------
E-|---------------------------------------------------------------------
    Part Before Chorus

G-|---------------------------------------------------------------------
D-|---------------------------------------------------------------------
A-|-6-6-6-6-6-6-5-5-5-5-5-4-4-4-4-4-3-3-3-3-3---------------------------
E-|---------------------------------------------------------------------
    Chorus 

G-|---------------------------------------------------------------------
D-|---------------------------------------------------------------------
A-|---------------------------------------------------------------------
E-|-5-5-6-0-3-----------------------------------------------------------
    End Riff 

transcribed by Adam and Paul Firth
  development and support by
dmitry ivanov