rock
 
|tablatures   |lyrics   |discussion forums   |more tabs @ XGuitar.com

Manic Street Preachers tabs

Ocean Spray bass tab

Bass Tab

Artist: Manic Street Preachers
Track: Ocean Spray
Album: Know Your Enemy
Transcribed by Jonathan Hamilton

      Intro                                          Verse                         
G---||----------------------------------------||--||--------------------
D---||*--2--2--2--2--2--2--2--2--2--0--0--0--*||--||*--2--2--2--2--2----
A---||*--------------------------------------*||--||*-------------------
E---||----------------------------------------||--||--------------------
                                                                        

                                                                        
G-----------------------------------------------------------------------
D---2--2--2--2--2--2--2--------------------------------0--0--0--0--0----
A------------------------0--0--0--0--0--2--0--2--0--2-------------------
E-----------------------------------------------------------------------
                                                                        

                                                                        
G-------------------------------------------------------------||--------
D---0--0--0--0--0--0--0--------------------------------------*||--------
A------------------------------------------------------------*||--------
E------------------------3--3--3--3--3--3--3--3--3--3--3--3---||--------
                                                                        

       Chorus                                                                 
G---||------------------------------------------------------------------
D---||*--------------------------------------------------------0--0-----
A---||*--2--2--2--2--2--2--2--2--2--0--0--0--0--0--0--0--0--0-----------
E---||------------------------------------------------------------------
                                                                        

                                                            Heavy Bit            
G----------------------------------------------------||--||-------------
D---0--0--0--0--0--0--0-----------------------------*||--||*------------
A---------------------------------------------------*||--||*------------
E------------------------3--3--3--3--3--3--3--3--3---||--||---4--4------
                                                                        

                                                                       
G----------------------------------------------------||-----------------
D---------------------------------------------------*||-----------------
A---------------------------------------------------*||-----------------
E---4--4--1--1--1--1--1--3--3--3--3--3--3--3--3--3---||-----------------
  development and support by
dmitry ivanov