rock
 
|tablatures   |lyrics   |discussion forums   |more tabs @ XGuitar.com

Manic Street Preachers tabs

No Surface All Feeling guitar tab

NO SURFACE ALL FEELING

Verse: E, Abm, (Gm), F#m, Asus2
Chorus/intro: E, F#m, A

E -------------16------------------14------------------12--------
B ----------12----12------------12----12------------12----12-----
G --(12)/13----------13-(12)/13----------13-(12)/13----------13--
D ---------------------------------------------------------------
A ---------------------------------------------------------------
E ---------------------------------------------------------------

E -------------11----------------9-------12--9-------------------
B ----------12----12----------10---10-----------10---------------
G --(12)/13----------13--9/11---------11-----------11--11--11/14-
D ---------------------------------------------------------------
A ---------------------------------------------------------------
E ---------------------------------------------------------------

E -----12-------15--12-------
B --13----13-----------13----
G -----------14-----------14-
D ---------------------------
A ---------------------------
E ---------------------------

E		022100
F#m		244222
Am		577555
G#maddb6	x66400
F#m11		x44200
Asus2		x02200	
E5		02xxxx
G#m		466444

[Intro]
E F#m Am E F#m Am

E					  G#maddb6
  Embarrased possessed and so uncivilised
F#m11						   Asus2
  Just take a look at the whites of my eyes
E				 G#maddb6
  See me now and I will apologise
F#m					     Asus2
  For me for you we knew there were lies

E5					    G#m
  It makes me angry, ashamed, but really alive
F#m					  A5
  It may have worked but at what price
E				     G#m			
  What's the point of always looking back
F#m						A5
  When all you see is more and more junk

E				   F#m		Am
It was no surface but all feeling
E					 F#m			Am
Maybe at the time it felt like dreaming

E			   G#maddb6
  Maybe richer maybe wiser
F#m11					Asus2
  seems so easy to not go too far
E				 G#maddb6			
  beg me to stop hate my face I know
F#m				  Asus2
  tell me forever just to go

E5				  G#m
  Just one thing before I get to sleep
F#m						A5
  nothing here but the stains on my teeth
E			  G#m
  no not blood just liquid from you
F#m				 A5
  I only wish it was the truth

E			  F#m			Am
Feel the guilt of a sinner
E			 F#m			Am
feel the cold of a winter
E				   F#m		Am
It was no surface but all feeling
E					  F#m			Am
maybe at the time it felt like dreaming
  development and support by
dmitry ivanov