rock
 
|tablatures   |lyrics   |discussion forums   |more tabs @ XGuitar.com

Manic Street Preachers tabs

Let Robeson Sing guitar tab

Band: Manic Street Preachers
Album: Know Your Enemy
Song: Let Robeson Sing
Year: 2001
Versions: 2


===========================================================================
===========================================================================
===========================================================================


Author/Artist: Manic Street Preachers
Title: Let Robeson Sing
Album: Know Your Enemy
Transcribed by: Jamie Wharton
Simple to play song, I've probably missed some bits but this will do just fine for the main rhythm.

 D              A  
-2-2---3-2------0-------------------------------------------------------------
-3---3-----3----2-2---3-2------------------------------------------------------
-2-----------2--2---2-----2---------------------------------------------------
-0--------------2-----------2--------------------------------------------------
-0--------------0-------------------------------------------------------------
-0--------------0-------------------------------------------------------------
 

Verse chords - D,A,D,A,F#m,G,D 

Chorus - G,A,D,A,F#m,G,A


===========================================================================
===========================================================================
===========================================================================


Manic Street Preachers: Let Robeson Sing
Know Your Enemy: Track 5




INTRO:


D5                A5


B-7-7--7-8--7-5---|-------------------|
D---------------7-|-6-6--6-7--6-4-----| X4
A-----------------|---------------7---|




VERSE 1:


Same intro riff:


D5                A5


B-7-7--7-8--7-5---|-------------------|
D---------------7-|-6-6--6-7--6-4-----| X2
A-----------------|---------------7---|


C#(#5b9) (X477XX)  G5 (355XXX)


Above riff X3


C#(#5b9)     G5


D5                A5


B-7-7--7-8--7-5---|-------------------|-------------------|
D---------------7-|-6-6--6-7--6-4-----|-6-6--6-7--6-4-----| 
A-----------------|---------------7---|---------------7---|




CHORUS 1:


  G5       A5
A voice so pure


  D5         B5
A vision so clear


     F#5                       G5
I've got to learn to live like you


                   A5
Learn to sing like you


            D5 (and into fill)
Woo-oo-oo-oo-oo




FILL:


D5                A5


B-7-7--7-8--7-5---|-------------------|
D---------------7-|-6-6--6-7--6-4-----| X2
A-----------------|---------------7---|




VERSE 2: 


Same as verse 1.




CHORUS 2:


Same as chorus 1.




INSTRUMENTAL:


(D5   A5   )X5


D5                A5


B-7-7--7-8--7-5---|-------------------|-------------------|
D---------------7-|-6-6--6-7--6-4-----|-6-6--6-7--6-4-----| 
A-----------------|---------------7---|---------------7---|




CHORUS 3: 


Same as chorus 1.




OUTRO:


D5                A5                   D5
B-7-7--7-8--7-5---|-------------------|-7-----------------|
D---------------7-|-6-6--6-7--6-4-----|-------------------|
A-----------------|---------------7---|-------------------|




Tabbed by Laurence J.E. Tait
laurencejetait@yahoo.co.uk 
  development and support by
dmitry ivanov